0
SECTION
2
HEADER
9
$INSUNITS
70
4
9
$ACADVER
1
AC1014
9
$HANDSEED
5
FFFF
0
ENDSEC
0
SECTION
2
TABLES
0
TABLE
2
VPORT
5
8
100
AcDbSymbolTable
0
ENDTAB
0
TABLE
2
LTYPE
5
5
100
AcDbSymbolTable
0
LTYPE
5
14
100
AcDbSymbolTableRecord
100
AcDbLinetypeTableRecord
2
BYBLOCK
70
0
0
LTYPE
5
15
100
AcDbSymbolTableRecord
100
AcDbLinetypeTableRecord
2
BYLAYER
70
0
0
ENDTAB
0
TABLE
2
LAYER
5
2
100
AcDbSymbolTable
70
2
0
LAYER
5
50
100
AcDbSymbolTableRecord
100
AcDbLayerTableRecord
2
0
70
0
6
CONTINUOUS
0
ENDTAB
0
TABLE
2
STYLE
5
3
100
AcDbSymbolTable
70
1
0
STYLE
5
11
100
AcDbSymbolTableRecord
100
AcDbTextStyleTableRecord
2
STANDARD
70
0
0
ENDTAB
0
TABLE
2
VIEW
5
6
100
AcDbSymbolTable
70
0
0
ENDTAB
0
TABLE
2
UCS
5
7
100
AcDbSymbolTable
70
0
0
ENDTAB
0
TABLE
2
APPID
5
9
100
AcDbSymbolTable
70
2
0
APPID
5
12
100
AcDbSymbolTableRecord
100
AcDbRegAppTableRecord
2
ACAD
70
0
0
ENDTAB
0
TABLE
2
DIMSTYLE
5
A
100
AcDbSymbolTable
70
1
0
ENDTAB
0
TABLE
2
BLOCK_RECORD
5
1
100
AcDbSymbolTable
70
1
0
BLOCK_RECORD
5
1F
100
AcDbSymbolTableRecord
100
AcDbBlockTableRecord
2
*MODEL_SPACE
0
BLOCK_RECORD
5
1B
100
AcDbSymbolTableRecord
100
AcDbBlockTableRecord
2
*PAPER_SPACE
0
ENDTAB
0
ENDSEC
0
SECTION
2
BLOCKS
0
BLOCK
5
20
100
AcDbEntity
100
AcDbBlockBegin
2
*MODEL_SPACE
0
ENDBLK
5
21
100
AcDbEntity
100
AcDbBlockEnd
0
BLOCK
5
1C
100
AcDbEntity
100
AcDbBlockBegin
2
*PAPER_SPACE
0
ENDBLK
5
1D
100
AcDbEntity
100
AcDbBlockEnd
0
ENDSEC
0
SECTION
2
ENTITIES
0
LWPOLYLINE
5
100
100
AcDbEntity
8
0
100
AcDbPolyline
90
11
70
1
43
0.0
10
7.9308743509957402
20
23.827017959996724
10
7.7553096911015729
20
24.542798786895965
10
5.5969830622275571
20
24.685954780120266
10
3.71020726199222
20
40.567063109533819
10
11.363623947905516
20
72.137384016283107
10
11.778099965859827
20
73.847096348953244
10
11.641195309415512
20
74.999431289608239
10
10.000031825713801
20
74.99964261020834
10
2.0001280126257011
20
42.000063341621818
10
4.2652002087366263
20
22.934810906280667
10
7.574167822702381
20
22.934384834759555
0
LWPOLYLINE
5
101
100
AcDbEntity
8
0
100
AcDbPolyline
90
13
70
1
43
0.0
10
5.947721271363914
20
27.251346247824728
10
9.0000001341104507
20
28.000000417232513
10
9.3185332221034383
20
29.123033931015261
10
9.6023910705867692
20
30.648769866613172
10
12.6228584815685
20
74.284373069587744
10
12.713283865215661
20
75.279038740490464
10
13.70000232106181
20
75.341425660452344
10
14.50001650415587
20
74.499979575039276
10
14.000011488948035
20
68.999999327821996
10
11.240947246342756
20
27.394797942775728
10
9.2910125877398215
20
25.54087597435484
10
6.2640005608743055
20
25.54087597435484
10
5.947721271363914
20
26.830353318561649
0
LWPOLYLINE
5
102
100
AcDbEntity
8
0
100
AcDbPolyline
90
14
70
1
43
0.0
10
5.8492818654649428
20
8.8920482525612687
10
7.1781818130759696
20
9.2179970047042907
10
11.999374589255996
20
8.9987899054590432
10
13.111151764256139
20
10.646674148672194
10
16.57303825810401
20
22.208041903631653
10
15.09097575873459
20
66.374894208995656
10
15.09097575873459
20
74.935946860725679
10
16.999969445225922
20
75.000005035728051
10
18.459685937076223
20
31.499084709703954
10
19.000001793541827
20
22.000000991099967
10
15.00000095182968
20
9.0000022743744346
10
11.425910700515606
20
6.7241570721814528
10
6.9682392693762241
20
6.7241570721814528
10
5.7492684389594348
20
7.3838996974406452
0
LWPOLYLINE
5
103
100
AcDbEntity
8
0
100
AcDbPolyline
90
64
70
1
43
0.0
10
23.4681902877821
20
34.827647598812959
10
22.24309796361533
20
35.19448400265717
10
21.511500558991816
20
35.105361941064729
10
21.06244688117469
20
43.000000657823144
10
21.325770104884239
20
48.065531656278651
10
23.226127194284345
20
47.465041049149704
10
31.000000461935997
20
41.000000610947609
10
33.000000491738319
20
40.000000596046448
10
34.636177953394402
20
39.886743981292511
10
34.93928218196919
20
44.265581441728514
10
34.787730067681792
20
49.782624202662113
10
39.242480767596014
20
49.90499535627648
10
45.296030922741508
20
49.843809779469296
10
45.000000670552254
20
54.500000812113285
10
43.099999036639986
20
54.499998781830143
10
44.000000655651093
20
57.000000849366188
10
47.472222374847448
20
55.749999815598166
10
51.000000759959221
20
53.000000789761543
10
54.000000804662704
20
47.000000700354576
10
56.000000834465027
20
44.000000655651093
10
55.96303169431431
20
40.342365053061393
10
60.92945640213334
20
40.29216747434652
10
62.166254118774106
20
40.327083853219243
10
62.334253999932614
20
34.376241408470214
10
46.648987952541702
20
34.481988112418477
10
46.600199285176977
20
29.654957620807593
10
63.546614484190641
20
30.166144106499484
10
68.340449884558581
20
40.217261691902308
10
69.000001028180122
20
47.000000700354576
10
61.000000908970833
20
46.000000685453415
10
55.981516264389668
20
52.122933221659622
10
52.500000782310963
20
56.37064661130664
10
48.424781340489091
20
58.843764233423457
10
42.00000062584877
20
59.00000087916851
10
39.199999123811722
20
54.499998781830072
10
34.885854154547395
20
53.856965910233029
10
31.252247671180076
20
53.625949305440308
10
31.000000461935997
20
44.000000655651093
10
27.000000402331352
20
48.000000715255737
10
24.000000357627869
20
51.000000759959221
10
21.396850747942608
20
51.000000759959221
10
21.06244688117469
20
54.28163710015366
10
19.930543148357387
20
74.18119805282474
10
18.976057131269215
20
78.953627957345077
10
17.250000272802311
20
79.564151552641292
10
9.2244308298977593
20
79.564151552641292
10
1.8424871444826996
20
75.513881565953383
10
-6.7643365772291064
20
65.682177807944825
10
-23.000000342726707
20
50.00000074505806
10
-23.220628878510098
20
46.812659869372801
10
-22.000000327825546
20
46.000000685453415
10
-20.920661096679709
20
45.925288552842218
10
-20.000000298023224
20
49.500000737607479
10
-14.000000208616257
20
55.000000819563866
10
-13.000000193715096
20
36.000000536441803
10
-10.000000149011612
20
37.000000551342964
10
-12.000000178813934
20
55.000000819563866
10
3.4052287869160858
20
73.691949948418909
10
9.0000001341104507
20
77.000001147389412
10
17.00000025331974
20
77.000001147389412
10
17.500000292284884
20
74.500001047337491
10
19.760198876900404
20
32.852127652774456
10
22.855641784497898
20
32.852127652774456
10
23.555972064432819
20
33.284390195953307
0
LINE
5
104
100
AcDbEntity
8
0
100
AcDbLine
10
39.242480767596014
20
49.90499535627648
30
0
11
34.787730067681821
21
49.782624202662113
31
0
0
LINE
5
105
100
AcDbEntity
8
0
100
AcDbLine
10
39.242480767596014
20
49.90499535627648
30
0
11
37.0151054176388
21
49.843809779469296
31
0
0
LWPOLYLINE
5
106
100
AcDbEntity
8
0
100
AcDbPolyline
90
17
70
1
43
0.0
10
20.717363942467713
20
32.398602629728288
10
22.500000335276127
20
32.500000484287739
10
26.479030377637184
20
33.786293179929125
10
30.447280504112562
20
36.803240175037544
10
35.563274506532522
20
38.957342912898582
10
45.34649110765141
20
44.526270704246912
10
46.000000685453415
20
47.000000700354576
10
48.595556733441583
20
47.798139566203261
10
50.00000074505806
20
46.000000685453415
10
48.595556733441583
20
43.052540723040408
10
45.483333380925245
20
41.511767710452794
10
39.944061298850798
20
38.769432098023302
10
35.428643085416212
20
36.533977332804923
10
32.681384521624814
20
32.649366308266579
10
28.330444933148581
20
30.495340218878439
10
20.986988919174536
20
30.495340218878439
10
20.804676463072983
20
30.863595035583042
0
LWPOLYLINE
5
107
100
AcDbEntity
8
0
100
AcDbPolyline
90
14
70
1
43
0.0
10
21.366484038903938
20
29.370368027144245
10
22.621572950602872
20
29.734161914593212
10
26.987099599990444
20
29.679592831475862
10
32.504424799164866
20
30.706898819721076
10
35.208841456337055
20
32.790030569164514
10
36.020649158799628
20
35.435647077870939
10
37.136949059816565
20
36.973660274827608
10
38.355658582770602
20
36.973660274827608
10
39.392471162000149
20
35.627622891266441
10
37.318846003541054
20
31.789597378679861
10
35.681773510020712
20
29.534075276496278
10
30.206675503913786
20
28.388124531032041
10
23.076315309914076
20
27.678726450506556
10
21.366484038903938
20
28.000000417232513
0
LWPOLYLINE
5
108
100
AcDbEntity
8
0
100
AcDbPolyline
90
18
70
1
43
0.0
10
54.500000812113285
20
36.500000543892384
10
53.500000797212124
20
37.500000558793545
10
47.999998927116394
20
36.799999177455902
10
44.399999007582664
20
36.59999918192625
10
40.099999103695154
20
33.899999242275953
10
36.999999172985554
20
29.19999934732914
10
30.799999311566353
20
27.235975759857396
10
23.19999948143959
20
27.235975759857396
10
21.349999522790313
20
27.235975759857396
10
21.099999528378248
20
26.199999414384365
10
21.599999517202377
20
25.399999432265759
10
31.398782823258394
20
25.547345783224507
10
39.000000581145287
20
28.000000417232513
10
41.000000610947609
20
32.000000476837158
10
43.77076701572733
20
34.501392461467034
10
49.540569926931077
20
35.167766804137862
10
53.441349731130856
20
35.128340111337657
10
54.48757861108853
20
35.270978593545443
0
LWPOLYLINE
5
109
100
AcDbEntity
8
0
100
AcDbPolyline
90
9
70
1
43
0.0
10
41.138396574808141
20
25.886975277338923
10
43.286804750670896
20
27.235975759857396
10
45.321415522459873
20
26.796641450044131
10
44.226600057948879
20
24.565977210629693
10
39.486762856025159
20
23.462739241216411
10
23.096901879262795
20
22.756048163158354
10
21.181592871072326
20
22.727247261607559
10
20.854299372600874
20
23.462739241216411
10
21.508886369543774
20
24.796446932602016
0
LWPOLYLINE
5
110
100
AcDbEntity
8
0
100
AcDbPolyline
90
6
70
1
43
0.0
10
21.343344188622673
20
14.223086601882919
10
22.854634910731697
20
14.319171098945137
10
36.310322825203116
20
14.422300633958272
10
36.35070591532839
20
12.247956694107163
10
23.000000342726707
20
12.000000178813934
10
21.453154024895831
20
12.495913209400392
0
LWPOLYLINE
5
111
100
AcDbEntity
8
0
100
AcDbPolyline
90
7
70
1
43
0.0
10
21.659534825121028
20
9.1977038941935376
10
22.854634910731697
20
9.219899938518175
10
36.353384502434622
20
9.121542322966814
10
36.384701056397901
20
7.0442109100693386
10
22.854634910731697
20
6.84024006365226
10
21.237230635840966
20
7.0442109100693386
10
20.814926446560907
20
8.370021411780348
0
LWPOLYLINE
5
112
100
AcDbEntity
8
0
100
AcDbPolyline
90
13
70
1
43
0.0
10
-9.0000001341104507
20
32.000000476837158
10
-7.0000001043081284
20
33.000000491738319
10
-5.2402359196251016
20
32.512742551372661
10
-4.9752352764805856
20
31.000000461935997
10
-4.9752352764805856
20
27.212729688482334
10
-1.0000000149011612
20
23.500000350177288
10
4.0000000596046448
20
22.147153516407577
10
8.1045276950029308
20
22.147153516407577
10
8.3189636546026566
20
20.07536392023788
10
5.8014575447297485
20
19.814795067364585
10
0.65318898369813194
20
20.335932773111178
10
-6.2214988521797192
20
24.036214907768567
10
-9.0000001341104507
20
29.59321747163003
0
LWPOLYLINE
5
113
100
AcDbEntity
8
0
100
AcDbPolyline
90
13
70
1
43
0.0
10
8.3233928561749622
20
19.143863278238456
10
6.1864894496165146
20
19.350055712204622
10
0
20
20.000000298023224
10
-7.0000001043081284
20
22.000000327825546
10
-11.000000163912773
20
26.000000387430191
10
-15.250000227242708
20
32.000000476837158
10
-15.250000227242708
20
42.00000062584877
10
-19.000000283122063
20
42.00000062584877
10
-19.000000283122063
20
32.000000476837158
10
-11.500000171363354
20
22.500000335276127
10
-3.0000000447034836
20
18.500000275671482
10
5.000000074505806
20
17.436044726599647
10
8.6225667984607597
20
17.436044726599647
0
ENDSEC
0
SECTION
2
OBJECTS
0
DICTIONARY
5
C
100
AcDbDictionary
3
ACAD_GROUP
350
D
3
ACAD_MLINESTYLE
350
17
0
DICTIONARY
5
D
100
AcDbDictionary
0
DICTIONARY
5
1A
330
C
100
AcDbDictionary
0
DICTIONARY
5
17
100
AcDbDictionary
0
ENDSEC
0
EOF
