  0
SECTION
  2
HEADER
  9
$ACADVER
  1
AC1018
  9
$ACADMAINTVER
 70
     0
  9
$DWGCODEPAGE
  3
ANSI_932
  9
$INSBASE
 10
0.0
 20
0.0
 30
0.0
  9
$EXTMIN
 10
1.000000000000000E+20
 20
1.000000000000000E+20
 30
1.000000000000000E+20
  9
$EXTMAX
 10
-1.000000000000000E+20
 20
-1.000000000000000E+20
 30
-1.000000000000000E+20
  9
$LIMMIN
 10
0.0
 20
0.0
  9
$LIMMAX
 10
12.0
 20
9.0
  9
$ORTHOMODE
 70
     0
  9
$REGENMODE
 70
     1
  9
$FILLMODE
 70
     1
  9
$QTEXTMODE
 70
     0
  9
$MIRRTEXT
 70
     1
  9
$LTSCALE
 40
1.0
  9
$ATTMODE
 70
     1
  9
$TEXTSIZE
 40
0.2
  9
$TRACEWID
 40
0.05
  9
$TEXTSTYLE
  7
Standard
  9
$CLAYER
  8
0
  9
$CELTYPE
  6
ByLayer
  9
$CECOLOR
 62
   256
  9
$CELTSCALE
 40
1.0
  9
$DISPSILH
 70
     0
  9
$DIMSCALE
 40
1.0
  9
$DIMASZ
 40
0.18
  9
$DIMEXO
 40
0.0625
  9
$DIMDLI
 40
0.38
  9
$DIMRND
 40
0.0
  9
$DIMDLE
 40
0.0
  9
$DIMEXE
 40
0.18
  9
$DIMTP
 40
0.0
  9
$DIMTM
 40
0.0
  9
$DIMTXT
 40
0.18
  9
$DIMCEN
 40
0.09
  9
$DIMTSZ
 40
0.0
  9
$DIMTOL
 70
     0
  9
$DIMLIM
 70
     0
  9
$DIMTIH
 70
     1
  9
$DIMTOH
 70
     1
  9
$DIMSE1
 70
     0
  9
$DIMSE2
 70
     0
  9
$DIMTAD
 70
     0
  9
$DIMZIN
 70
     0
  9
$DIMBLK
  1

  9
$DIMASO
 70
     1
  9
$DIMSHO
 70
     1
  9
$DIMPOST
  1

  9
$DIMAPOST
  1

  9
$DIMALT
 70
     0
  9
$DIMALTD
 70
     2
  9
$DIMALTF
 40
25.4
  9
$DIMLFAC
 40
1.0
  9
$DIMTOFL
 70
     0
  9
$DIMTVP
 40
0.0
  9
$DIMTIX
 70
     0
  9
$DIMSOXD
 70
     0
  9
$DIMSAH
 70
     0
  9
$DIMBLK1
  1

  9
$DIMBLK2
  1

  9
$DIMSTYLE
  2
Standard
  9
$DIMCLRD
 70
     0
  9
$DIMCLRE
 70
     0
  9
$DIMCLRT
 70
     0
  9
$DIMTFAC
 40
1.0
  9
$DIMGAP
 40
0.09
  9
$DIMJUST
 70
     0
  9
$DIMSD1
 70
     0
  9
$DIMSD2
 70
     0
  9
$DIMTOLJ
 70
     1
  9
$DIMTZIN
 70
     0
  9
$DIMALTZ
 70
     0
  9
$DIMALTTZ
 70
     0
  9
$DIMUPT
 70
     0
  9
$DIMDEC
 70
     4
  9
$DIMTDEC
 70
     4
  9
$DIMALTU
 70
     2
  9
$DIMALTTD
 70
     2
  9
$DIMTXSTY
  7
Standard
  9
$DIMAUNIT
 70
     0
  9
$DIMADEC
 70
     0
  9
$DIMALTRND
 40
0.0
  9
$DIMAZIN
 70
     0
  9
$DIMDSEP
 70
    46
  9
$DIMATFIT
 70
     3
  9
$DIMFRAC
 70
     0
  9
$DIMLDRBLK
  1

  9
$DIMLUNIT
 70
     2
  9
$DIMLWD
 70
    -2
  9
$DIMLWE
 70
    -2
  9
$DIMTMOVE
 70
     0
  9
$LUNITS
 70
     2
  9
$LUPREC
 70
     4
  9
$SKETCHINC
 40
0.1
  9
$FILLETRAD
 40
0.5
  9
$AUNITS
 70
     0
  9
$AUPREC
 70
     0
  9
$MENU
  1
.
  9
$ELEVATION
 40
0.0
  9
$PELEVATION
 40
0.0
  9
$THICKNESS
 40
0.0
  9
$LIMCHECK
 70
     0
  9
$CHAMFERA
 40
0.5
  9
$CHAMFERB
 40
0.5
  9
$CHAMFERC
 40
1.0
  9
$CHAMFERD
 40
0.0
  9
$SKPOLY
 70
     0
  9
$TDCREATE
 40
2458551.4475
  9
$TDUCREATE
 40
2458551.405833333
  9
$TDUPDATE
 40
2458551.447500011
  9
$TDUUPDATE
 40
2458551.405833345
  9
$TDINDWG
 40
0.0000000116
  9
$TDUSRTIMER
 40
0.0000000116
  9
$USRTIMER
 70
     1
  9
$ANGBASE
 50
0.0
  9
$ANGDIR
 70
     0
  9
$PDMODE
 70
     0
  9
$PDSIZE
 40
0.0
  9
$PLINEWID
 40
0.0
  9
$SPLFRAME
 70
     0
  9
$SPLINETYPE
 70
     6
  9
$SPLINESEGS
 70
     8
  9
$HANDSEED
  5
4F
  9
$SURFTAB1
 70
     6
  9
$SURFTAB2
 70
     6
  9
$SURFTYPE
 70
     6
  9
$SURFU
 70
     6
  9
$SURFV
 70
     6
  9
$UCSBASE
  2

  9
$UCSNAME
  2

  9
$UCSORG
 10
0.0
 20
0.0
 30
0.0
  9
$UCSXDIR
 10
1.0
 20
0.0
 30
0.0
  9
$UCSYDIR
 10
0.0
 20
1.0
 30
0.0
  9
$UCSORTHOREF
  2

  9
$UCSORTHOVIEW
 70
     0
  9
$UCSORGTOP
 10
0.0
 20
0.0
 30
0.0
  9
$UCSORGBOTTOM
 10
0.0
 20
0.0
 30
0.0
  9
$UCSORGLEFT
 10
0.0
 20
0.0
 30
0.0
  9
$UCSORGRIGHT
 10
0.0
 20
0.0
 30
0.0
  9
$UCSORGFRONT
 10
0.0
 20
0.0
 30
0.0
  9
$UCSORGBACK
 10
0.0
 20
0.0
 30
0.0
  9
$PUCSBASE
  2

  9
$PUCSNAME
  2

  9
$PUCSORG
 10
0.0
 20
0.0
 30
0.0
  9
$PUCSXDIR
 10
1.0
 20
0.0
 30
0.0
  9
$PUCSYDIR
 10
0.0
 20
1.0
 30
0.0
  9
$PUCSORTHOREF
  2

  9
$PUCSORTHOVIEW
 70
     0
  9
$PUCSORGTOP
 10
0.0
 20
0.0
 30
0.0
  9
$PUCSORGBOTTOM
 10
0.0
 20
0.0
 30
0.0
  9
$PUCSORGLEFT
 10
0.0
 20
0.0
 30
0.0
  9
$PUCSORGRIGHT
 10
0.0
 20
0.0
 30
0.0
  9
$PUCSORGFRONT
 10
0.0
 20
0.0
 30
0.0
  9
$PUCSORGBACK
 10
0.0
 20
0.0
 30
0.0
  9
$USERI1
 70
     0
  9
$USERI2
 70
     0
  9
$USERI3
 70
     0
  9
$USERI4
 70
     0
  9
$USERI5
 70
     0
  9
$USERR1
 40
0.0
  9
$USERR2
 40
0.0
  9
$USERR3
 40
0.0
  9
$USERR4
 40
0.0
  9
$USERR5
 40
0.0
  9
$WORLDVIEW
 70
     1
  9
$SHADEDGE
 70
     3
  9
$SHADEDIF
 70
    70
  9
$TILEMODE
 70
     1
  9
$MAXACTVP
 70
    64
  9
$PINSBASE
 10
0.0
 20
0.0
 30
0.0
  9
$PLIMCHECK
 70
     0
  9
$PEXTMIN
 10
1.000000000000000E+20
 20
1.000000000000000E+20
 30
1.000000000000000E+20
  9
$PEXTMAX
 10
-1.000000000000000E+20
 20
-1.000000000000000E+20
 30
-1.000000000000000E+20
  9
$PLIMMIN
 10
0.0
 20
0.0
  9
$PLIMMAX
 10
12.0
 20
9.0
  9
$UNITMODE
 70
     0
  9
$VISRETAIN
 70
     1
  9
$PLINEGEN
 70
     0
  9
$PSLTSCALE
 70
     1
  9
$TREEDEPTH
 70
  3020
  9
$CMLSTYLE
  2
Standard
  9
$CMLJUST
 70
     0
  9
$CMLSCALE
 40
1.0
  9
$PROXYGRAPHICS
 70
     1
  9
$MEASUREMENT
 70
     0
  9
$CELWEIGHT
370
    -1
  9
$ENDCAPS
280
     0
  9
$JOINSTYLE
280
     0
  9
$LWDISPLAY
290
     1
  9
$INSUNITS
 70
     1
  9
$HYPERLINKBASE
  1

  9
$STYLESHEET
  1

  9
$XEDIT
290
     1
  9
$CEPSNTYPE
380
     0
  9
$PSTYLEMODE
290
     1
  9
$FINGERPRINTGUID
  2
{D4D8D3C2-9612-191C-A8F6-8EA3334E25A3}
  9
$VERSIONGUID
  2
{FAEB1C32-E019-11D5-929B-00C0DF256EC4}
  9
$EXTNAMES
290
     1
  9
$PSVPSCALE
 40
0.0
  9
$OLESTARTUP
290
     0
  9
$SORTENTS
280
   127
  9
$INDEXCTL
280
     0
  9
$HIDETEXT
280
     1
  9
$XCLIPFRAME
290
     0
  9
$HALOGAP
280
     0
  9
$OBSCOLOR
 70
   257
  9
$OBSLTYPE
280
     0
  9
$INTERSECTIONDISPLAY
280
     0
  9
$INTERSECTIONCOLOR
 70
   257
  9
$DIMASSOC
280
     2
  9
$PROJECTNAME
  1

  0
ENDSEC
  0
SECTION
  2
CLASSES
  0
CLASS
  1
ACDBDICTIONARYWDFLT
  2
AcDbDictionaryWithDefault
  3
ObjectDBX Classes
 90
        0
 91
        3
280
     0
281
     0
  0
CLASS
  1
VISUALSTYLE
  2
AcDbVisualStyle
  3
ObjectDBX Classes
 90
     4095
 91
        3
280
     0
281
     0
  0
ENDSEC
  0
SECTION
  2
TABLES
  0
TABLE
  2
VPORT
  5
8
330
0
100
AcDbSymbolTable
 70
     1
  0
VPORT
  5
29
330
8
100
AcDbSymbolTableRecord
100
AcDbViewportTableRecord
  2
*Active
 70
     0
 10
0.0
 20
0.0
 11
1.0
 21
1.0
 12
0.0
 22
0.0
 13
0.0
 23
0.0
 14
0.5
 24
0.5
 15
0.5
 25
0.5
 16
0.0
 26
0.0
 36
1.0
 17
18.02998801824766
 27
-7.261775147352729
 37
0.0
 40
7.77835894341469
 41
1.074831528852137
 42
50.0
 43
0.0
 44
0.0
 50
0.0
 51
0.0
 71
     0
 72
   100
 73
     1
 74
     3
 75
     0
 76
     0
 77
     0
 78
     0
281
     0
 65
     1
110
0.0
120
0.0
130
0.0
111
1.0
121
0.0
131
0.0
112
0.0
122
1.0
132
0.0
 79
     0
146
0.0
  0
ENDTAB
  0
TABLE
  2
LTYPE
  5
5
330
0
100
AcDbSymbolTable
 70
     1
  0
LTYPE
  5
14
330
5
100
AcDbSymbolTableRecord
100
AcDbLinetypeTableRecord
  2
ByBlock
 70
     0
  3

 72
    65
 73
     0
 40
0.0
  0
LTYPE
  5
15
330
5
100
AcDbSymbolTableRecord
100
AcDbLinetypeTableRecord
  2
ByLayer
 70
     0
  3

 72
    65
 73
     0
 40
0.0
  0
LTYPE
  5
16
330
5
100
AcDbSymbolTableRecord
100
AcDbLinetypeTableRecord
  2
Continuous
 70
     0
  3
Solid line
 72
    65
 73
     0
 40
0.0
  0
ENDTAB
  0
TABLE
  2
LAYER
  5
2
330
0
100
AcDbSymbolTable
 70
     3
  0
LAYER
  5
10
330
2
100
AcDbSymbolTableRecord
100
AcDbLayerTableRecord
  2
0
 70
     0
 62
     7
  6
Continuous
370
    -3
390
F
  0
LAYER
  5
3B
330
2
100
AcDbSymbolTableRecord
100
AcDbLayerTableRecord
  2
Calque 2
 70
     0
 62
     7
  6
Continuous
370
    -3
390
F
  0
LAYER
  5
45
330
2
100
AcDbSymbolTableRecord
100
AcDbLayerTableRecord
  2
Calque 3
 70
     0
 62
     7
  6
Continuous
370
    -3
390
F
  0
ENDTAB
  0
TABLE
  2
STYLE
  5
3
330
0
100
AcDbSymbolTable
 70
     1
  0
STYLE
  5
11
330
3
100
AcDbSymbolTableRecord
100
AcDbTextStyleTableRecord
  2
Standard
 70
     0
 40
0.0
 41
1.0
 50
0.0
 71
     0
 42
0.2
  3
txt
  4

  0
ENDTAB
  0
TABLE
  2
VIEW
  5
6
330
0
100
AcDbSymbolTable
 70
     0
  0
ENDTAB
  0
TABLE
  2
UCS
  5
7
330
0
100
AcDbSymbolTable
 70
     0
  0
ENDTAB
  0
TABLE
  2
APPID
  5
9
330
0
100
AcDbSymbolTable
 70
     1
  0
APPID
  5
12
330
9
100
AcDbSymbolTableRecord
100
AcDbRegAppTableRecord
  2
ACAD
 70
     0
  0
ENDTAB
  0
TABLE
  2
DIMSTYLE
  5
A
330
0
100
AcDbSymbolTable
 70
     1
100
AcDbDimStyleTable
  0
DIMSTYLE
105
27
330
A
100
AcDbSymbolTableRecord
100
AcDbDimStyleTableRecord
  2
Standard
 70
     0
340
11
  0
ENDTAB
  0
TABLE
  2
BLOCK_RECORD
  5
1
330
0
100
AcDbSymbolTable
 70
     1
  0
BLOCK_RECORD
  5
1F
330
1
100
AcDbSymbolTableRecord
100
AcDbBlockTableRecord
  2
*Model_Space
340
22
  0
BLOCK_RECORD
  5
1B
330
1
100
AcDbSymbolTableRecord
100
AcDbBlockTableRecord
  2
*Paper_Space
340
1E
  0
BLOCK_RECORD
  5
23
330
1
100
AcDbSymbolTableRecord
100
AcDbBlockTableRecord
  2
*Paper_Space0
340
26
  0
ENDTAB
  0
ENDSEC
  0
SECTION
  2
BLOCKS
  0
BLOCK
  5
20
330
1F
100
AcDbEntity
  8
0
100
AcDbBlockBegin
  2
*Model_Space
 70
     0
 71
     0
 10
0.0
 20
0.0
 30
0.0
  3
*Model_Space
  1

  0
ENDBLK
  5
21
330
1F
100
AcDbEntity
  8
0
100
AcDbBlockEnd
  0
BLOCK
  5
1C
330
1B
100
AcDbEntity
 67
     1
  8
0
100
AcDbBlockBegin
  2
*Paper_Space
 70
     0
 71
     0
 10
0.0
 20
0.0
 30
0.0
  3
*Paper_Space
  1

  0
ENDBLK
  5
1D
330
1B
100
AcDbEntity
 67
     1
  8
0
100
AcDbBlockEnd
  0
BLOCK
  5
24
330
23
100
AcDbEntity
  8
0
100
AcDbBlockBegin
  2
*Paper_Space0
 70
     0
 71
     0
 10
0.0
 20
0.0
 30
0.0
  3
*Paper_Space0
  1

  0
ENDBLK
  5
25
330
23
100
AcDbEntity
  8
0
100
AcDbBlockEnd
  0
ENDSEC
  0
SECTION
  2
ENTITIES
  0
SPLINE
  5
3C
330
1F
100
AcDbEntity
  8
Calque 2
 62
   179
420
  1842203
370
    35
100
AcDbSpline
210
0.0
220
0.0
230
1.0
 70
    11
 71
     3
 72
   182
 73
   178
 74
     0
 42
0.0000000001
 43
0.0000000001
 40
0.0
 40
0.0
 40
0.0
 40
0.0
 40
1.0
 40
1.0
 40
1.0
 40
2.0
 40
2.0
 40
2.0
 40
3.0
 40
3.0
 40
3.0
 40
4.0
 40
4.0
 40
4.0
 40
5.0
 40
5.0
 40
5.0
 40
6.0
 40
6.0
 40
6.0
 40
7.0
 40
7.0
 40
7.0
 40
8.0
 40
8.0
 40
8.0
 40
9.0
 40
9.0
 40
9.0
 40
10.0
 40
10.0
 40
10.0
 40
11.0
 40
11.0
 40
11.0
 40
12.0
 40
12.0
 40
12.0
 40
13.0
 40
13.0
 40
13.0
 40
14.0
 40
14.0
 40
14.0
 40
15.0
 40
15.0
 40
15.0
 40
16.0
 40
16.0
 40
16.0
 40
17.0
 40
17.0
 40
17.0
 40
18.0
 40
18.0
 40
18.0
 40
19.0
 40
19.0
 40
19.0
 40
20.0
 40
20.0
 40
20.0
 40
21.0
 40
21.0
 40
21.0
 40
22.0
 40
22.0
 40
22.0
 40
23.0
 40
23.0
 40
23.0
 40
24.0
 40
24.0
 40
24.0
 40
25.0
 40
25.0
 40
25.0
 40
26.0
 40
26.0
 40
26.0
 40
27.0
 40
27.0
 40
27.0
 40
28.0
 40
28.0
 40
28.0
 40
29.0
 40
29.0
 40
29.0
 40
30.0
 40
30.0
 40
30.0
 40
31.0
 40
31.0
 40
31.0
 40
32.0
 40
32.0
 40
32.0
 40
33.0
 40
33.0
 40
33.0
 40
34.0
 40
34.0
 40
34.0
 40
35.0
 40
35.0
 40
35.0
 40
36.0
 40
36.0
 40
36.0
 40
37.0
 40
37.0
 40
37.0
 40
38.0
 40
38.0
 40
38.0
 40
39.0
 40
39.0
 40
39.0
 40
40.0
 40
40.0
 40
40.0
 40
41.0
 40
41.0
 40
41.0
 40
42.0
 40
42.0
 40
42.0
 40
43.0
 40
43.0
 40
43.0
 40
44.0
 40
44.0
 40
44.0
 40
45.0
 40
45.0
 40
45.0
 40
46.0
 40
46.0
 40
46.0
 40
47.0
 40
47.0
 40
47.0
 40
48.0
 40
48.0
 40
48.0
 40
49.0
 40
49.0
 40
49.0
 40
50.0
 40
50.0
 40
50.0
 40
51.0
 40
51.0
 40
51.0
 40
52.0
 40
52.0
 40
52.0
 40
53.0
 40
53.0
 40
53.0
 40
54.0
 40
54.0
 40
54.0
 40
55.0
 40
55.0
 40
55.0
 40
56.0
 40
56.0
 40
56.0
 40
57.0
 40
57.0
 40
57.0
 40
58.0
 40
58.0
 40
58.0
 40
59.0
 40
59.0
 40
59.0
 40
59.0
 10
20.3839888652853
 20
-7.436760275223999
 30
0.0
 10
20.27805210922797
 20
-7.409578453913681
 30
0.0
 10
20.08557449749065
 20
-7.416175816120178
 30
0.0
 10
20.08557449749065
 20
-7.416175816120178
 30
0.0
 10
20.08629796801983
 20
-7.050495914601334
 30
0.0
 10
20.08629796801983
 20
-6.527788457274597
 30
0.0
 10
20.08629796801983
 20
-6.0545353782634
 30
0.0
 10
20.08629796801983
 20
-5.918143958025697
 30
0.0
 10
20.13087753300785
 20
-5.652113509155895
 30
0.0
 10
19.98656238792684
 20
-5.672112301640863
 30
0.0
 10
19.90308766925142
 20
-5.683687830107614
 30
0.0
 10
19.90277761045321
 20
-5.83151697490175
 30
0.0
 10
19.91083913920684
 20
-5.923518310528117
 30
0.0
 10
19.41898253230265
 20
-5.925482016250155
 30
0.0
 10
19.02076368245986
 20
-6.324768846397914
 30
0.0
 10
19.02076368245986
 20
-6.817142217965799
 30
0.0
 10
19.02076368245986
 20
-7.051271061596875
 30
0.0
 10
19.11092189078571
 20
-7.264229779505277
 30
0.0
 10
19.25823427091616
 20
-7.423531099833426
 30
0.0
 10
19.23084574374036
 20
-7.4249263644254
 30
0.0
 10
19.2039050792731
 20
-7.426562785860432
 30
0.0
 10
19.17792904217807
 20
-7.428440364138521
 30
0.0
 10
19.08949338273119
 20
-7.55890621623253
 30
0.0
 10
19.06995967844355
 20
-7.758308474463353
 30
0.0
 10
18.99502880220788
 20
-7.902296335257361
 30
0.0
 10
18.94245661042139
 20
-7.902296335257361
 30
0.0
 10
18.88984996765731
 20
-7.902296335257361
 30
0.0
 10
18.83724332489324
 20
-7.902296335257361
 30
0.0
 10
18.83889697181706
 20
-6.947745873970127
 30
0.0
 10
18.83889697181706
 20
-5.84944870873194
 30
0.0
 10
18.83889697181706
 20
-4.81181971501146
 30
0.0
 10
18.83889697181706
 20
-4.671845393105476
 30
0.0
 10
18.86666445974623
 20
-4.569663793604333
 30
0.0
 10
18.79135462275719
 20
-4.545720364186499
 30
0.0
 10
18.76920264417349
 20
-4.545720364186499
 30
0.0
 10
18.74701621461222
 20
-4.545720364186499
 30
0.0
 10
18.72486423602853
 20
-4.545720364186499
 30
0.0
 10
18.64249194863566
 20
-4.588060615631848
 30
0.0
 10
18.68317855315719
 20
-4.606216280816306
 30
0.0
 10
18.67263655401783
 20
-4.720369595026367
 30
0.0
 10
18.67263655401783
 20
-4.720369595026367
 30
0.0
 10
18.67263655401783
 20
-4.779694178418467
 30
0.0
 10
18.67263655401783
 20
-4.779694178418467
 30
0.0
 10
18.67087955416127
 20
-4.779676952929677
 30
0.0
 10
18.66912255430471
 20
-4.779556374508148
 30
0.0
 10
18.66736555444815
 20
-4.779556374508148
 30
0.0
 10
18.17382084964256
 20
-4.779556374508148
 30
0.0
 10
17.7736727450553
 20
-5.179687253606609
 30
0.0
 10
17.7736727450553
 20
-5.67326640938978
 30
0.0
 10
17.7736727450553
 20
-5.940778250295505
 30
0.0
 10
17.89139173544486
 20
-6.180660407182377
 30
0.0
 10
18.0775648182851
 20
-6.406452114239186
 30
0.0
 10
18.0775648182851
 20
-6.406452114239186
 30
0.0
 10
18.48856498080994
 20
-6.406452114239186
 30
0.0
 10
18.48856498080994
 20
-6.406452114239186
 30
0.0
 10
18.48856498080994
 20
-6.406452114239186
 30
0.0
 10
18.48925400036153
 20
-6.445709003191159
 30
0.0
 10
18.48925400036153
 20
-6.445709003191159
 30
0.0
 10
17.99650166804027
 20
-6.44663917958581
 30
0.0
 10
17.7736727450553
 20
-6.846373872442104
 30
0.0
 10
17.7736727450553
 20
-7.339384587095211
 30
0.0
 10
17.7736727450553
 20
-7.552877295156097
 30
0.0
 10
17.84881032715645
 20
-7.748644975252271
 30
0.0
 10
17.97372957186014
 20
-7.902296335257361
 30
0.0
 10
17.97372957186014
 20
-7.902296335257361
 30
0.0
 10
17.95612512231695
 20
-7.902296335257361
 30
0.0
 10
17.95612512231695
 20
-7.902296335257361
 30
0.0
 10
17.95612512231695
 20
-7.902296335257361
 30
0.0
 10
17.61464703254779
 20
-7.902296335257361
 30
0.0
 10
17.61464703254779
 20
-7.902296335257361
 30
0.0
 10
17.61464703254779
 20
-7.392645798433299
 30
0.0
 10
17.61464703254779
 20
-6.88714660440758
 30
0.0
 10
17.61464703254779
 20
-6.276141291544286
 30
0.0
 10
17.61464703254779
 20
-6.126675725315118
 30
0.0
 10
17.4625115155562
 20
-6.10305958018429
 30
0.0
 10
17.45941092757404
 20
-6.251198783776642
 30
0.0
 10
17.45941092757404
 20
-6.251198783776642
 30
0.0
 10
17.4579639865157
 20
-6.408209114095746
 30
0.0
 10
17.4579639865157
 20
-6.408209114095746
 30
0.0
 10
17.45410547702678
 20
-6.408157437629377
 30
0.0
 10
17.45028141851544
 20
-6.40791628078632
 30
0.0
 10
17.44638845804894
 20
-6.40791628078632
 30
0.0
 10
17.0093778074515
 20
-6.40791628078632
 30
0.0
 10
16.64585109203139
 20
-6.72167855909268
 30
0.0
 10
16.56823303954451
 20
-7.136175495841841
 30
0.0
 10
16.31660309930299
 20
-6.607111833151665
 30
0.0
 10
15.75739483123065
 20
-6.920357346794331
 30
0.0
 10
15.75739483123065
 20
-6.920357346794331
 30
0.0
 10
15.72504536328339
 20
-6.929176797054713
 30
0.0
 10
15.73503614678148
 20
-7.037318415677131
 30
0.0
 10
15.73503614678148
 20
-7.037318415677131
 30
0.0
 10
15.56870682702709
 20
-6.919237690022993
 30
0.0
 10
15.37908864642887
 20
-6.7676189376951
 30
0.0
 10
15.20865966034251
 20
-6.639736908919562
 30
0.0
 10
15.20414658227958
 20
-6.636395164094339
 30
0.0
 10
15.19956460226149
 20
-6.627627390300327
 30
0.0
 10
15.18406166235066
 20
-6.629022654892301
 30
0.0
 10
15.17407087885258
 20
-6.658633270121982
 30
0.0
 10
15.20338866077283
 20
-6.684350924885166
 30
0.0
 10
15.21858154188544
 20
-6.704246364437394
 30
0.0
 10
15.32751553299219
 20
-6.846925088083378
 30
0.0
 10
15.43572605356976
 20
-7.00500339870745
 30
0.0
 10
15.54145610376161
 20
-7.155089082533051
 30
0.0
 10
15.47413889357104
 20
-7.119690703069995
 30
0.0
 10
15.36944237270658
 20
-7.09214714649509
 30
0.0
 10
15.35173457023066
 20
-7.24960533952273
 30
0.0
 10
15.35173457023066
 20
-7.24960533952273
 30
0.0
 10
15.35176902120824
 20
-7.305450374179289
 30
0.0
 10
15.25179228427219
 20
-7.270172573137761
 30
0.0
 10
15.25179228427219
 20
-7.270172573137761
 30
0.0
 10
15.32737772908187
 20
-7.390699318200051
 30
0.0
 10
15.40275646802607
 20
-7.270172573137761
 30
0.0
 10
15.40275646802607
 20
-7.270172573137761
 30
0.0
 10
15.42494289758734
 20
-7.249932623809737
 30
0.0
 10
15.46800661956187
 20
-7.271550612240945
 30
0.0
 10
15.38487641066225
 20
-7.359814016799924
 30
0.0
 10
15.30391661335015
 20
-7.458757224408584
 30
0.0
 10
15.2096931896699
 20
-7.546555540770237
 30
0.0
 10
15.17975529015321
 20
-7.574426381632148
 30
0.0
 10
15.12225660857283
 20
-7.612288005992147
 30
0.0
 10
15.11467739350532
 20
-7.64529204251342
 30
0.0
 10
15.09724519885003
 20
-7.721153095143736
 30
0.0
 10
15.18137448609945
 20
-7.7837505214059
 30
0.0
 10
15.25454836247856
 20
-7.794103040168575
 30
0.0
 10
15.31359733805002
 20
-7.802457402231632
 30
0.0
 10
15.3731286273076
 20
-7.779444149208448
 30
0.0
 10
15.43293552438582
 20
-7.766008267952397
 30
0.0
 10
15.4939826566569
 20
-7.75227955338692
 30
0.0
 10
15.56398704309868
 20
-7.73150561390641
 30
0.0
 10
15.60453584370989
 20
-7.733262613762971
 30
0.0
 10
15.64415446792645
 20
-7.735002388130741
 30
0.0
 10
15.70682079614377
 20
-7.759100846947684
 30
0.0
 10
15.75687806656695
 20
-7.761116229136092
 30
0.0
 10
15.81737398319676
 20
-7.763562248544244
 30
0.0
 10
15.8749415667323
 20
-7.739791074014309
 30
0.0
 10
15.91580042614173
 20
-7.71183410570845
 30
0.0
 10
15.92551560181918
 20
-7.705202292524373
 30
0.0
 10
15.97167991177587
 20
-7.770297414661059
 30
0.0
 10
16.03031547561637
 20
-7.862453779686534
 30
0.0
 10
15.86171239134173
 20
-8.298844312687542
 30
0.0
 10
16.11017284164592
 20
-8.449050574934672
 30
0.0
 10
16.11017284164592
 20
-8.449050574934672
 30
0.0
 10
16.07637643264032
 20
-8.301772645781808
 30
0.0
 10
16.11416915504516
 20
-8.177886930405506
 30
0.0
 10
16.16470873915446
 20
-8.086540163353153
 30
0.0
 10
16.19161495264414
 20
-8.140938256951367
 30
0.0
 10
16.22709945955114
 20
-8.194991840773787
 30
0.0
 10
16.24294690923777
 20
-8.226514485259136
 30
0.0
 10
16.29417551289866
 20
-8.328386025962063
 30
0.0
 10
16.33641241141127
 20
-8.430378145086518
 30
0.0
 10
16.36765944807598
 20
-8.492527708640148
 30
0.0
 10
16.55338466820769
 20
-8.86197999220396
 30
0.0
 10
16.39766624954783
 20
-9.301212730855285
 30
0.0
 10
16.90843644314323
 20
-9.348789530892736
 30
0.0
 10
17.20040847813048
 20
-9.376005803180632
 30
0.0
 10
17.51043282536945
 20
-9.348789530892736
 30
0.0
 10
17.80626336984562
 20
-9.348789530892736
 30
0.0
 10
18.55374623039057
 20
-9.348789530892736
 30
0.0
 10
18.84737191230165
 20
-9.348789530892736
 30
0.0
 10
19.62747984861449
 20
-9.348789530892736
 30
0.0
 10
19.75801460266366
 20
-9.348789530892736
 30
0.0
 10
20.01388201314747
 20
-9.367444735252098
 30
0.0
 10
20.05977071528352
 20
-9.332166934210571
 30
0.0
 10
20.12164467101652
 20
-9.28457290868433
 30
0.0
 10
20.09305035962543
 20
-9.085687415117201
 30
0.0
 10
20.09305035962543
 20
-8.991326187526631
 30
0.0
 10
20.09305035962543
 20
-8.840809866481285
 30
0.0
 10
20.08674583072836
 20
-8.698768485920525
 30
0.0
 10
20.10131859424454
 20
-8.625542933075048
 30
0.0
 10
20.19326825340454
 20
-8.617722561164475
 30
0.0
 10
20.31842865495129
 20
-8.643130157129443
 30
0.0
 10
20.3839888652853
 20
-8.608920336392883
 30
0.0
 10
20.42874068516122
 20
-8.446105016351614
 30
0.0
 10
20.40893137305294
 20
-8.226204426460919
 30
0.0
 10
20.40893137305294
 20
-8.018671737521307
 30
0.0
 10
20.40893137305294
 20
-7.813464489568319
 30
0.0
 10
20.42874068516122
 20
-7.597387958188962
 30
0.0
 10
20.3839888652853
 20
-7.436760275223999
 30
0.0
  0
SPLINE
  5
3D
330
1F
100
AcDbEntity
  8
Calque 2
 62
   179
420
  1842203
370
    35
100
AcDbSpline
210
0.0
220
0.0
230
1.0
 70
    11
 71
     3
 72
    23
 73
    19
 74
     0
 42
0.0000000001
 43
0.0000000001
 40
0.0
 40
0.0
 40
0.0
 40
0.0
 40
1.0
 40
1.0
 40
1.0
 40
2.0
 40
2.0
 40
2.0
 40
3.0
 40
3.0
 40
3.0
 40
4.0
 40
4.0
 40
4.0
 40
5.0
 40
5.0
 40
5.0
 40
6.0
 40
6.0
 40
6.0
 40
6.0
 10
16.74055682939775
 20
-7.902296335257361
 30
0.0
 10
16.73576814351419
 20
-7.902296335257361
 30
0.0
 10
16.73359773192667
 20
-7.902296335257361
 30
0.0
 10
16.73297761433024
 20
-7.902296335257361
 30
0.0
 10
16.72488163459903
 20
-7.902296335257361
 30
0.0
 10
16.70899973393482
 20
-7.902296335257361
 30
0.0
 10
16.67820055997865
 20
-7.902296335257361
 30
0.0
 10
16.63599811244362
 20
-7.826555861048574
 30
0.0
 10
16.59892886056795
 20
-7.760254954696601
 30
0.0
 10
16.5658903730691
 20
-7.701533263412144
 30
0.0
 10
16.58587194006527
 20
-7.676470177222972
 30
0.0
 10
16.60199499757254
 20
-7.652130561562974
 30
0.0
 10
16.61467295732183
 20
-7.628858926207942
 30
0.0
 10
16.65477389522451
 20
-7.730420408112653
 30
0.0
 10
16.7129271453789
 20
-7.822869606447555
 30
0.0
 10
16.78513639438578
 20
-7.902296335257361
 30
0.0
 10
16.76139967083342
 20
-7.902296335257361
 30
0.0
 10
16.74789488762221
 20
-7.902296335257361
 30
0.0
 10
16.74055682939775
 20
-7.902296335257361
 30
0.0
  0
HATCH
  5
3E
330
1F
100
AcDbEntity
  8
Calque 2
 62
   178
420
        0
100
AcDbHatch
 10
0.0
 20
0.0
 30
0.0
210
0.0
220
0.0
230
1.0
  2
SOLID
 70
     1
 71
     0
 91
        2
 92
        1
 93
        1
 72
     4
 94
        3
 73
     0
 74
     1
 95
      182
 96
      178
 40
0.0
 40
0.0
 40
0.0
 40
0.0
 40
1.0
 40
1.0
 40
1.0
 40
2.0
 40
2.0
 40
2.0
 40
3.0
 40
3.0
 40
3.0
 40
4.0
 40
4.0
 40
4.0
 40
5.0
 40
5.0
 40
5.0
 40
6.0
 40
6.0
 40
6.0
 40
7.0
 40
7.0
 40
7.0
 40
8.0
 40
8.0
 40
8.0
 40
9.0
 40
9.0
 40
9.0
 40
10.0
 40
10.0
 40
10.0
 40
11.0
 40
11.0
 40
11.0
 40
12.0
 40
12.0
 40
12.0
 40
13.0
 40
13.0
 40
13.0
 40
14.0
 40
14.0
 40
14.0
 40
15.0
 40
15.0
 40
15.0
 40
16.0
 40
16.0
 40
16.0
 40
17.0
 40
17.0
 40
17.0
 40
18.0
 40
18.0
 40
18.0
 40
19.0
 40
19.0
 40
19.0
 40
20.0
 40
20.0
 40
20.0
 40
21.0
 40
21.0
 40
21.0
 40
22.0
 40
22.0
 40
22.0
 40
23.0
 40
23.0
 40
23.0
 40
24.0
 40
24.0
 40
24.0
 40
25.0
 40
25.0
 40
25.0
 40
26.0
 40
26.0
 40
26.0
 40
27.0
 40
27.0
 40
27.0
 40
28.0
 40
28.0
 40
28.0
 40
29.0
 40
29.0
 40
29.0
 40
30.0
 40
30.0
 40
30.0
 40
31.0
 40
31.0
 40
31.0
 40
32.0
 40
32.0
 40
32.0
 40
33.0
 40
33.0
 40
33.0
 40
34.0
 40
34.0
 40
34.0
 40
35.0
 40
35.0
 40
35.0
 40
36.0
 40
36.0
 40
36.0
 40
37.0
 40
37.0
 40
37.0
 40
38.0
 40
38.0
 40
38.0
 40
39.0
 40
39.0
 40
39.0
 40
40.0
 40
40.0
 40
40.0
 40
41.0
 40
41.0
 40
41.0
 40
42.0
 40
42.0
 40
42.0
 40
43.0
 40
43.0
 40
43.0
 40
44.0
 40
44.0
 40
44.0
 40
45.0
 40
45.0
 40
45.0
 40
46.0
 40
46.0
 40
46.0
 40
47.0
 40
47.0
 40
47.0
 40
48.0
 40
48.0
 40
48.0
 40
49.0
 40
49.0
 40
49.0
 40
50.0
 40
50.0
 40
50.0
 40
51.0
 40
51.0
 40
51.0
 40
52.0
 40
52.0
 40
52.0
 40
53.0
 40
53.0
 40
53.0
 40
54.0
 40
54.0
 40
54.0
 40
55.0
 40
55.0
 40
55.0
 40
56.0
 40
56.0
 40
56.0
 40
57.0
 40
57.0
 40
57.0
 40
58.0
 40
58.0
 40
58.0
 40
59.0
 40
59.0
 40
59.0
 40
59.0
 10
20.3839888652853
 20
-7.436760275223999
 10
20.27805210922797
 20
-7.409578453913681
 10
20.08557449749065
 20
-7.416175816120178
 10
20.08557449749065
 20
-7.416175816120178
 10
20.08629796801983
 20
-7.050495914601334
 10
20.08629796801983
 20
-6.527788457274597
 10
20.08629796801983
 20
-6.0545353782634
 10
20.08629796801983
 20
-5.918143958025697
 10
20.13087753300785
 20
-5.652113509155895
 10
19.98656238792684
 20
-5.672112301640863
 10
19.90308766925142
 20
-5.683687830107614
 10
19.90277761045321
 20
-5.83151697490175
 10
19.91083913920684
 20
-5.923518310528117
 10
19.41898253230265
 20
-5.925482016250155
 10
19.02076368245986
 20
-6.324768846397914
 10
19.02076368245986
 20
-6.817142217965799
 10
19.02076368245986
 20
-7.051271061596875
 10
19.11092189078571
 20
-7.264229779505277
 10
19.25823427091616
 20
-7.423531099833426
 10
19.23084574374036
 20
-7.4249263644254
 10
19.2039050792731
 20
-7.426562785860432
 10
19.17792904217807
 20
-7.428440364138521
 10
19.08949338273119
 20
-7.55890621623253
 10
19.06995967844355
 20
-7.758308474463353
 10
18.99502880220788
 20
-7.902296335257361
 10
18.94245661042139
 20
-7.902296335257361
 10
18.88984996765731
 20
-7.902296335257361
 10
18.83724332489324
 20
-7.902296335257361
 10
18.83889697181706
 20
-6.947745873970127
 10
18.83889697181706
 20
-5.84944870873194
 10
18.83889697181706
 20
-4.81181971501146
 10
18.83889697181706
 20
-4.671845393105476
 10
18.86666445974623
 20
-4.569663793604333
 10
18.79135462275719
 20
-4.545720364186499
 10
18.76920264417349
 20
-4.545720364186499
 10
18.74701621461222
 20
-4.545720364186499
 10
18.72486423602853
 20
-4.545720364186499
 10
18.64249194863566
 20
-4.588060615631848
 10
18.68317855315719
 20
-4.606216280816306
 10
18.67263655401783
 20
-4.720369595026367
 10
18.67263655401783
 20
-4.720369595026367
 10
18.67263655401783
 20
-4.779694178418467
 10
18.67263655401783
 20
-4.779694178418467
 10
18.67087955416127
 20
-4.779676952929677
 10
18.66912255430471
 20
-4.779556374508148
 10
18.66736555444815
 20
-4.779556374508148
 10
18.17382084964256
 20
-4.779556374508148
 10
17.7736727450553
 20
-5.179687253606609
 10
17.7736727450553
 20
-5.67326640938978
 10
17.7736727450553
 20
-5.940778250295505
 10
17.89139173544486
 20
-6.180660407182377
 10
18.0775648182851
 20
-6.406452114239186
 10
18.0775648182851
 20
-6.406452114239186
 10
18.48856498080994
 20
-6.406452114239186
 10
18.48856498080994
 20
-6.406452114239186
 10
18.48856498080994
 20
-6.406452114239186
 10
18.48925400036153
 20
-6.445709003191159
 10
18.48925400036153
 20
-6.445709003191159
 10
17.99650166804027
 20
-6.44663917958581
 10
17.7736727450553
 20
-6.846373872442104
 10
17.7736727450553
 20
-7.339384587095211
 10
17.7736727450553
 20
-7.552877295156097
 10
17.84881032715645
 20
-7.748644975252271
 10
17.97372957186014
 20
-7.902296335257361
 10
17.97372957186014
 20
-7.902296335257361
 10
17.95612512231695
 20
-7.902296335257361
 10
17.95612512231695
 20
-7.902296335257361
 10
17.95612512231695
 20
-7.902296335257361
 10
17.61464703254779
 20
-7.902296335257361
 10
17.61464703254779
 20
-7.902296335257361
 10
17.61464703254779
 20
-7.392645798433299
 10
17.61464703254779
 20
-6.88714660440758
 10
17.61464703254779
 20
-6.276141291544286
 10
17.61464703254779
 20
-6.126675725315118
 10
17.4625115155562
 20
-6.10305958018429
 10
17.45941092757404
 20
-6.251198783776642
 10
17.45941092757404
 20
-6.251198783776642
 10
17.4579639865157
 20
-6.408209114095746
 10
17.4579639865157
 20
-6.408209114095746
 10
17.45410547702678
 20
-6.408157437629377
 10
17.45028141851544
 20
-6.40791628078632
 10
17.44638845804894
 20
-6.40791628078632
 10
17.0093778074515
 20
-6.40791628078632
 10
16.64585109203139
 20
-6.72167855909268
 10
16.56823303954451
 20
-7.136175495841841
 10
16.31660309930299
 20
-6.607111833151665
 10
15.75739483123065
 20
-6.920357346794331
 10
15.75739483123065
 20
-6.920357346794331
 10
15.72504536328339
 20
-6.929176797054713
 10
15.73503614678148
 20
-7.037318415677131
 10
15.73503614678148
 20
-7.037318415677131
 10
15.56870682702709
 20
-6.919237690022993
 10
15.37908864642887
 20
-6.7676189376951
 10
15.20865966034251
 20
-6.639736908919562
 10
15.20414658227958
 20
-6.636395164094339
 10
15.19956460226149
 20
-6.627627390300327
 10
15.18406166235066
 20
-6.629022654892301
 10
15.17407087885258
 20
-6.658633270121982
 10
15.20338866077283
 20
-6.684350924885166
 10
15.21858154188544
 20
-6.704246364437394
 10
15.32751553299219
 20
-6.846925088083378
 10
15.43572605356976
 20
-7.00500339870745
 10
15.54145610376161
 20
-7.155089082533051
 10
15.47413889357104
 20
-7.119690703069995
 10
15.36944237270658
 20
-7.09214714649509
 10
15.35173457023066
 20
-7.24960533952273
 10
15.35173457023066
 20
-7.24960533952273
 10
15.35176902120824
 20
-7.305450374179289
 10
15.25179228427219
 20
-7.270172573137761
 10
15.25179228427219
 20
-7.270172573137761
 10
15.32737772908187
 20
-7.390699318200051
 10
15.40275646802607
 20
-7.270172573137761
 10
15.40275646802607
 20
-7.270172573137761
 10
15.42494289758734
 20
-7.249932623809737
 10
15.46800661956187
 20
-7.271550612240945
 10
15.38487641066225
 20
-7.359814016799924
 10
15.30391661335015
 20
-7.458757224408584
 10
15.2096931896699
 20
-7.546555540770237
 10
15.17975529015321
 20
-7.574426381632148
 10
15.12225660857283
 20
-7.612288005992147
 10
15.11467739350532
 20
-7.64529204251342
 10
15.09724519885003
 20
-7.721153095143736
 10
15.18137448609945
 20
-7.7837505214059
 10
15.25454836247856
 20
-7.794103040168575
 10
15.31359733805002
 20
-7.802457402231632
 10
15.3731286273076
 20
-7.779444149208448
 10
15.43293552438582
 20
-7.766008267952397
 10
15.4939826566569
 20
-7.75227955338692
 10
15.56398704309868
 20
-7.73150561390641
 10
15.60453584370989
 20
-7.733262613762971
 10
15.64415446792645
 20
-7.735002388130741
 10
15.70682079614377
 20
-7.759100846947684
 10
15.75687806656695
 20
-7.761116229136092
 10
15.81737398319676
 20
-7.763562248544244
 10
15.8749415667323
 20
-7.739791074014309
 10
15.91580042614173
 20
-7.71183410570845
 10
15.92551560181918
 20
-7.705202292524373
 10
15.97167991177587
 20
-7.770297414661059
 10
16.03031547561637
 20
-7.862453779686534
 10
15.86171239134173
 20
-8.298844312687542
 10
16.11017284164592
 20
-8.449050574934672
 10
16.11017284164592
 20
-8.449050574934672
 10
16.07637643264032
 20
-8.301772645781808
 10
16.11416915504516
 20
-8.177886930405506
 10
16.16470873915446
 20
-8.086540163353153
 10
16.19161495264414
 20
-8.140938256951367
 10
16.22709945955114
 20
-8.194991840773787
 10
16.24294690923777
 20
-8.226514485259136
 10
16.29417551289866
 20
-8.328386025962063
 10
16.33641241141127
 20
-8.430378145086518
 10
16.36765944807598
 20
-8.492527708640148
 10
16.55338466820769
 20
-8.86197999220396
 10
16.39766624954783
 20
-9.301212730855285
 10
16.90843644314323
 20
-9.348789530892736
 10
17.20040847813048
 20
-9.376005803180632
 10
17.51043282536945
 20
-9.348789530892736
 10
17.80626336984562
 20
-9.348789530892736
 10
18.55374623039057
 20
-9.348789530892736
 10
18.84737191230165
 20
-9.348789530892736
 10
19.62747984861449
 20
-9.348789530892736
 10
19.75801460266366
 20
-9.348789530892736
 10
20.01388201314747
 20
-9.367444735252098
 10
20.05977071528352
 20
-9.332166934210571
 10
20.12164467101652
 20
-9.28457290868433
 10
20.09305035962543
 20
-9.085687415117201
 10
20.09305035962543
 20
-8.991326187526631
 10
20.09305035962543
 20
-8.840809866481285
 10
20.08674583072836
 20
-8.698768485920525
 10
20.10131859424454
 20
-8.625542933075048
 10
20.19326825340454
 20
-8.617722561164475
 10
20.31842865495129
 20
-8.643130157129443
 10
20.3839888652853
 20
-8.608920336392883
 10
20.42874068516122
 20
-8.446105016351614
 10
20.40893137305294
 20
-8.226204426460919
 10
20.40893137305294
 20
-8.018671737521307
 10
20.40893137305294
 20
-7.813464489568319
 10
20.42874068516122
 20
-7.597387958188962
 10
20.3839888652853
 20
-7.436760275223999
 97
        0
 92
        1
 93
        1
 72
     4
 94
        3
 73
     0
 74
     1
 95
       23
 96
       19
 40
0.0
 40
0.0
 40
0.0
 40
0.0
 40
1.0
 40
1.0
 40
1.0
 40
2.0
 40
2.0
 40
2.0
 40
3.0
 40
3.0
 40
3.0
 40
4.0
 40
4.0
 40
4.0
 40
5.0
 40
5.0
 40
5.0
 40
6.0
 40
6.0
 40
6.0
 40
6.0
 10
16.74055682939775
 20
-7.902296335257361
 10
16.73576814351419
 20
-7.902296335257361
 10
16.73359773192667
 20
-7.902296335257361
 10
16.73297761433024
 20
-7.902296335257361
 10
16.72488163459903
 20
-7.902296335257361
 10
16.70899973393482
 20
-7.902296335257361
 10
16.67820055997865
 20
-7.902296335257361
 10
16.63599811244362
 20
-7.826555861048574
 10
16.59892886056795
 20
-7.760254954696601
 10
16.5658903730691
 20
-7.701533263412144
 10
16.58587194006527
 20
-7.676470177222972
 10
16.60199499757254
 20
-7.652130561562974
 10
16.61467295732183
 20
-7.628858926207942
 10
16.65477389522451
 20
-7.730420408112653
 10
16.7129271453789
 20
-7.822869606447555
 10
16.78513639438578
 20
-7.902296335257361
 10
16.76139967083342
 20
-7.902296335257361
 10
16.74789488762221
 20
-7.902296335257361
 10
16.74055682939775
 20
-7.902296335257361
 97
        0
 75
     2
 76
     1
 98
        0
  0
SPLINE
  5
3F
330
1F
100
AcDbEntity
  8
Calque 2
 62
   179
420
  1842203
370
    35
100
AcDbSpline
210
0.0
220
0.0
230
1.0
 70
     8
 71
     3
 72
     8
 73
     4
 74
     0
 42
0.0000000001
 43
0.0000000001
 40
0.0
 40
0.0
 40
0.0
 40
0.0
 40
1.0
 40
1.0
 40
1.0
 40
1.0
 10
16.51876143574018
 20
-7.737586211449213
 30
0.0
 10
16.51876143574018
 20
-7.737586211449213
 30
0.0
 10
16.3012035123249
 20
-7.890445198969974
 30
0.0
 10
16.18806650195344
 20
-8.02568251145876
 30
0.0
  0
HATCH
  5
40
330
1F
100
AcDbEntity
  8
Calque 2
 62
   178
420
        0
100
AcDbHatch
 10
0.0
 20
0.0
 30
0.0
210
0.0
220
0.0
230
1.0
  2
SOLID
 70
     1
 71
     0
 91
        1
 92
        1
 93
        2
 72
     4
 94
        3
 73
     0
 74
     0
 95
        8
 96
        4
 40
0.0
 40
0.0
 40
0.0
 40
0.0
 40
0.0352778010415277
 40
0.0352778010415277
 40
0.0352778010415277
 40
0.0352778010415277
 10
16.51876143574018
 20
-7.737586211449213
 10
16.51876143574018
 20
-7.737586211449213
 10
16.3012035123249
 20
-7.890445198969974
 10
16.18806650195344
 20
-8.02568251145876
 72
     1
 10
16.18806650195344
 20
-8.02568251145876
 11
16.51876143574018
 21
-7.737586211449213
 97
        0
 75
     2
 76
     1
 98
        0
  0
SPLINE
  5
41
330
1F
100
AcDbEntity
  8
Calque 2
 62
   179
420
  1842203
370
    35
100
AcDbSpline
210
0.0
220
0.0
230
1.0
 70
     8
 71
     3
 72
    20
 73
    16
 74
     0
 42
0.0000000001
 43
0.0000000001
 40
0.0
 40
0.0
 40
0.0
 40
0.0
 40
1.0
 40
1.0
 40
1.0
 40
2.0
 40
2.0
 40
2.0
 40
3.0
 40
3.0
 40
3.0
 40
4.0
 40
4.0
 40
4.0
 40
5.0
 40
5.0
 40
5.0
 40
5.0
 10
16.1102072926235
 20
-7.913975216656851
 30
0.0
 10
16.12123160544898
 20
-7.847484829928191
 30
0.0
 10
16.22324095006223
 20
-7.770073483306792
 30
0.0
 10
16.26861288753458
 20
-7.720085114838768
 30
0.0
 10
16.33076245108821
 20
-7.651613796899279
 30
0.0
 10
16.39239524997815
 20
-7.561197206241575
 30
0.0
 10
16.43356416818579
 20
-7.47887659531508
 30
0.0
 10
16.47473308639343
 20
-7.396555984388586
 30
0.0
 10
16.45802436226732
 20
-7.230795105764259
 30
0.0
 10
16.41006860147649
 20
-7.130456633563625
 30
0.0
 10
16.34674770468515
 20
-6.998027075747578
 30
0.0
 10
16.19202836437509
 20
-6.949899060068852
 30
0.0
 10
16.05270861104312
 20
-6.9807499104914
 30
0.0
 10
15.99772485082605
 20
-6.992911105577004
 30
0.0
 10
15.95597026599956
 20
-7.02028240726401
 30
0.0
 10
15.91028826972899
 20
-7.049669091139423
 30
0.0
  0
SPLINE
  5
42
330
1F
100
AcDbEntity
  8
Calque 2
 62
   179
420
  1842203
370
    35
100
AcDbSpline
210
0.0
220
0.0
230
1.0
 70
     8
 71
     3
 72
    17
 73
    13
 74
     0
 42
0.0000000001
 43
0.0000000001
 40
0.0
 40
0.0
 40
0.0
 40
0.0
 40
1.0
 40
1.0
 40
1.0
 40
2.0
 40
2.0
 40
2.0
 40
3.0
 40
3.0
 40
3.0
 40
4.0
 40
4.0
 40
4.0
 40
4.0
 10
16.00437388949892
 20
-7.167250277618655
 30
0.0
 10
16.05484457165306
 20
-7.144943269635854
 30
0.0
 10
16.12595138937739
 20
-7.108597488289358
 30
0.0
 10
16.19385426618681
 20
-7.147837151752541
 30
0.0
 10
16.26434096631471
 20
-7.188575432740438
 30
0.0
 10
16.27491741643165
 20
-7.277252249030372
 30
0.0
 10
16.27481406349891
 20
-7.349530399992409
 30
0.0
 10
16.2746762595886
 20
-7.449713842793934
 30
0.0
 10
16.24621975210783
 20
-7.489091310167437
 30
0.0
 10
16.18503481592643
 20
-7.565761960770874
 30
0.0
 10
16.13594217287548
 20
-7.62725695575049
 30
0.0
 10
16.09453209782478
 20
-7.682499098299406
 30
0.0
 10
16.07492949158198
 20
-7.755225111969977
 30
0.0
  0
SPLINE
  5
43
330
1F
100
AcDbEntity
  8
Calque 2
370
     0
100
AcDbSpline
210
0.0
220
0.0
230
1.0
 70
    11
 71
     3
 72
    17
 73
    13
 74
     0
 42
0.0000000001
 43
0.0000000001
 40
0.0
 40
0.0
 40
0.0
 40
0.0
 40
1.0
 40
1.0
 40
1.0
 40
2.0
 40
2.0
 40
2.0
 40
3.0
 40
3.0
 40
3.0
 40
4.0
 40
4.0
 40
4.0
 40
4.0
 10
15.93681552246529
 20
-7.331925950449224
 30
0.0
 10
15.93681552246529
 20
-7.414763326039413
 30
0.0
 10
15.86967056716262
 20
-7.481925506830876
 30
0.0
 10
15.78681596608364
 20
-7.481925506830876
 30
0.0
 10
15.70396136500466
 20
-7.481925506830876
 30
0.0
 10
15.63681640970199
 20
-7.414763326039413
 30
0.0
 10
15.63681640970199
 20
-7.331925950449224
 30
0.0
 10
15.63681640970199
 20
-7.249088574859035
 30
0.0
 10
15.70396136500466
 20
-7.181926394067572
 30
0.0
 10
15.78681596608364
 20
-7.181926394067572
 30
0.0
 10
15.86967056716262
 20
-7.181926394067572
 30
0.0
 10
15.93681552246529
 20
-7.249088574859035
 30
0.0
 10
15.93681552246529
 20
-7.331925950449224
 30
0.0
  0
HATCH
  5
44
330
1F
100
AcDbEntity
  8
Calque 2
 62
   232
420
 15150185
100
AcDbHatch
 10
0.0
 20
0.0
 30
0.0
210
0.0
220
0.0
230
1.0
  2
SOLID
 70
     1
 71
     0
 91
        1
 92
        1
 93
        1
 72
     4
 94
        3
 73
     0
 74
     1
 95
       17
 96
       13
 40
0.0
 40
0.0
 40
0.0
 40
0.0
 40
1.0
 40
1.0
 40
1.0
 40
2.0
 40
2.0
 40
2.0
 40
3.0
 40
3.0
 40
3.0
 40
4.0
 40
4.0
 40
4.0
 40
4.0
 10
15.93681552246529
 20
-7.331925950449224
 10
15.93681552246529
 20
-7.414763326039413
 10
15.86967056716262
 20
-7.481925506830876
 10
15.78681596608364
 20
-7.481925506830876
 10
15.70396136500466
 20
-7.481925506830876
 10
15.63681640970199
 20
-7.414763326039413
 10
15.63681640970199
 20
-7.331925950449224
 10
15.63681640970199
 20
-7.249088574859035
 10
15.70396136500466
 20
-7.181926394067572
 10
15.78681596608364
 20
-7.181926394067572
 10
15.86967056716262
 20
-7.181926394067572
 10
15.93681552246529
 20
-7.249088574859035
 10
15.93681552246529
 20
-7.331925950449224
 97
        0
 75
     2
 76
     1
 98
        0
  0
SPLINE
  5
46
330
1F
100
AcDbEntity
  8
Calque 3
 62
     7
420
 16777215
370
    35
100
AcDbSpline
210
0.0
220
0.0
230
1.0
 70
    11
 71
     3
 72
    11
 73
     7
 74
     0
 42
0.0000000001
 43
0.0000000001
 40
0.0
 40
0.0
 40
0.0
 40
0.0
 40
1.0
 40
1.0
 40
1.0
 40
2.0
 40
2.0
 40
2.0
 40
2.0
 10
18.52119005657783
 20
-8.428052704099894
 30
0.0
 10
18.26914670460535
 20
-8.484052768155562
 30
0.0
 10
18.30104830984408
 20
-8.832524406373386
 30
0.0
 10
18.49624754881019
 20
-8.893588764133257
 30
0.0
 10
18.88885088930751
 20
-9.016423724693382
 30
0.0
 10
18.93666884618801
 20
-8.335758535164102
 30
0.0
 10
18.52119005657783
 20
-8.428052704099894
 30
0.0
  0
SPLINE
  5
47
330
1F
100
AcDbEntity
  8
Calque 3
 62
     7
420
 16777215
370
    35
100
AcDbSpline
210
0.0
220
0.0
230
1.0
 70
    11
 71
     3
 72
    11
 73
     7
 74
     0
 42
0.0000000001
 43
0.0000000001
 40
0.0
 40
0.0
 40
0.0
 40
0.0
 40
1.0
 40
1.0
 40
1.0
 40
2.0
 40
2.0
 40
2.0
 40
2.0
 10
18.51288737098114
 20
-8.610935718581292
 30
0.0
 10
18.54857858375363
 20
-8.573676986328936
 30
0.0
 10
18.61017693166598
 20
-8.573676986328936
 30
0.0
 10
18.64586814443847
 20
-8.610935718581292
 30
0.0
 10
18.72414076549936
 20
-8.772286872075426
 30
0.0
 10
18.43464920089783
 20
-8.772286872075426
 30
0.0
 10
18.51288737098114
 20
-8.610935718581292
 30
0.0
  0
SPLINE
  5
48
330
1F
100
AcDbEntity
  8
Calque 3
 62
     7
420
 16777215
370
    35
100
AcDbSpline
210
0.0
220
0.0
230
1.0
 70
    11
 71
     3
 72
    14
 73
    10
 74
     0
 42
0.0000000001
 43
0.0000000001
 40
0.0
 40
0.0
 40
0.0
 40
0.0
 40
1.0
 40
1.0
 40
1.0
 40
2.0
 40
2.0
 40
2.0
 40
3.0
 40
3.0
 40
3.0
 40
3.0
 10
19.15298653441043
 20
-8.586010436302438
 30
0.0
 10
19.08746077505399
 20
-8.83121526922536
 30
0.0
 10
19.32444904982418
 20
-8.953361210233894
 30
0.0
 10
19.48554182098647
 20
-8.88528607853657
 30
0.0
 10
19.74175374124608
 20
-8.776954979537464
 30
0.0
 10
19.62038294723309
 20
-8.366661062053018
 30
0.0
 10
19.32758408878393
 20
-8.428052704099894
 30
0.0
 10
19.22405890115717
 20
-8.449756819975054
 30
0.0
 10
19.17090104275183
 20
-8.518951608443714
 30
0.0
 10
19.15298653441043
 20
-8.586010436302438
 30
0.0
  0
SPLINE
  5
49
330
1F
100
AcDbEntity
  8
Calque 3
 62
     7
420
 16777215
370
    35
100
AcDbSpline
210
0.0
220
0.0
230
1.0
 70
    11
 71
     3
 72
    11
 73
     7
 74
     0
 42
0.0000000001
 43
0.0000000001
 40
0.0
 40
0.0
 40
0.0
 40
0.0
 40
1.0
 40
1.0
 40
1.0
 40
2.0
 40
2.0
 40
2.0
 40
2.0
 10
19.45226217664456
 20
-8.610935718581292
 30
0.0
 10
19.51027762288863
 20
-8.761503716093006
 30
0.0
 10
19.30381291425399
 20
-8.771494499591096
 30
0.0
 10
19.30264158101628
 20
-8.660820734116577
 30
0.0
 10
19.30184920853195
 20
-8.588025818490845
 30
0.0
 10
19.39672720078622
 20
-8.552696340982948
 30
0.0
 10
19.45226217664456
 20
-8.610935718581292
 30
0.0
  0
SPLINE
  5
4A
330
1F
100
AcDbEntity
  8
Calque 3
 62
     7
420
 16777215
370
    35
100
AcDbSpline
210
0.0
220
0.0
230
1.0
 70
    11
 71
     3
 72
    11
 73
     7
 74
     0
 42
0.0000000001
 43
0.0000000001
 40
0.0
 40
0.0
 40
0.0
 40
0.0
 40
1.0
 40
1.0
 40
1.0
 40
2.0
 40
2.0
 40
2.0
 40
2.0
 10
16.96851894804208
 20
-8.428052704099894
 30
0.0
 10
16.7164755960696
 20
-8.484052768155562
 30
0.0
 10
16.74837720130833
 20
-8.832524406373386
 30
0.0
 10
16.94357644027444
 20
-8.893588764133257
 30
0.0
 10
17.33617978077175
 20
-9.016423724693382
 30
0.0
 10
17.38399773765226
 20
-8.335758535164102
 30
0.0
 10
16.96851894804208
 20
-8.428052704099894
 30
0.0
  0
SPLINE
  5
4B
330
1F
100
AcDbEntity
  8
Calque 3
 62
     7
420
 16777215
370
    35
100
AcDbSpline
210
0.0
220
0.0
230
1.0
 70
    11
 71
     3
 72
    11
 73
     7
 74
     0
 42
0.0000000001
 43
0.0000000001
 40
0.0
 40
0.0
 40
0.0
 40
0.0
 40
1.0
 40
1.0
 40
1.0
 40
2.0
 40
2.0
 40
2.0
 40
2.0
 10
16.96021626244539
 20
-8.610935718581292
 30
0.0
 10
16.99590747521788
 20
-8.573676986328936
 30
0.0
 10
17.05750582313023
 20
-8.573676986328936
 30
0.0
 10
17.09319703590271
 20
-8.610935718581292
 30
0.0
 10
17.1714696569636
 20
-8.772286872075426
 30
0.0
 10
16.88197809236208
 20
-8.772286872075426
 30
0.0
 10
16.96021626244539
 20
-8.610935718581292
 30
0.0
  0
SPLINE
  5
4C
330
1F
100
AcDbEntity
  8
Calque 3
 62
     7
420
 16777215
370
    35
100
AcDbSpline
210
0.0
220
0.0
230
1.0
 70
    11
 71
     3
 72
    14
 73
    10
 74
     0
 42
0.0000000001
 43
0.0000000001
 40
0.0
 40
0.0
 40
0.0
 40
0.0
 40
1.0
 40
1.0
 40
1.0
 40
2.0
 40
2.0
 40
2.0
 40
3.0
 40
3.0
 40
3.0
 40
3.0
 10
17.60031542587467
 20
-8.586010436302438
 30
0.0
 10
17.53478966651824
 20
-8.83121526922536
 30
0.0
 10
17.77177794128843
 20
-8.953361210233894
 30
0.0
 10
17.93287071245071
 20
-8.88528607853657
 30
0.0
 10
18.18908263271033
 20
-8.776954979537464
 30
0.0
 10
18.06771183869733
 20
-8.366661062053018
 30
0.0
 10
17.77491298024817
 20
-8.428052704099894
 30
0.0
 10
17.67138779262142
 20
-8.449756819975054
 30
0.0
 10
17.61822993421607
 20
-8.518951608443714
 30
0.0
 10
17.60031542587467
 20
-8.586010436302438
 30
0.0
  0
SPLINE
  5
4D
330
1F
100
AcDbEntity
  8
Calque 3
 62
     7
420
 16777215
370
    35
100
AcDbSpline
210
0.0
220
0.0
230
1.0
 70
    11
 71
     3
 72
    11
 73
     7
 74
     0
 42
0.0000000001
 43
0.0000000001
 40
0.0
 40
0.0
 40
0.0
 40
0.0
 40
1.0
 40
1.0
 40
1.0
 40
2.0
 40
2.0
 40
2.0
 40
2.0
 10
17.8995910681088
 20
-8.610935718581292
 30
0.0
 10
17.95760651435288
 20
-8.761503716093006
 30
0.0
 10
17.75114180571824
 20
-8.771494499591096
 30
0.0
 10
17.74997047248053
 20
-8.660820734116577
 30
0.0
 10
17.7491780999962
 20
-8.588025818490845
 30
0.0
 10
17.84405609225046
 20
-8.552696340982948
 30
0.0
 10
17.8995910681088
 20
-8.610935718581292
 30
0.0
  0
ENDSEC
  0
SECTION
  2
OBJECTS
  0
DICTIONARY
  5
C
330
0
100
AcDbDictionary
281
     1
  3
ACAD_GROUP
350
D
  3
ACAD_LAYOUT
350
1A
  3
ACAD_MLINESTYLE
350
17
  3
ACAD_PLOTSETTINGS
350
19
  3
ACAD_PLOTSTYLENAME
350
E
  3
ACAD_TABLESTYLE
350
4E
  3
ACAD_VISUALSTYLE
350
2A
  0
DICTIONARY
  5
D
102
{ACAD_REACTORS
330
C
102
}
330
C
100
AcDbDictionary
281
     1
  0
DICTIONARY
  5
1A
102
{ACAD_REACTORS
330
C
102
}
330
C
100
AcDbDictionary
281
     1
  3
Layout1
350
1E
  3
Layout2
350
26
  3
Model
350
22
  0
DICTIONARY
  5
17
102
{ACAD_REACTORS
330
C
102
}
330
C
100
AcDbDictionary
281
     1
  3
Standard
350
18
  0
DICTIONARY
  5
19
102
{ACAD_REACTORS
330
C
102
}
330
C
100
AcDbDictionary
281
     1
  0
ACDBDICTIONARYWDFLT
  5
E
102
{ACAD_REACTORS
330
C
102
}
330
C
100
AcDbDictionary
281
     1
  3
Normal
350
F
100
AcDbDictionaryWithDefault
340
F
  0
DICTIONARY
  5
4E
102
{ACAD_REACTORS
330
C
102
}
330
C
100
AcDbDictionary
281
     1
  0
DICTIONARY
  5
2A
102
{ACAD_REACTORS
330
C
102
}
330
C
100
AcDbDictionary
281
     1
  3
2dWireframe
350
2F
  3
3D Hidden
350
31
  3
3dWireframe
350
30
  3
Basic
350
32
  3
Brighten
350
36
  3
ColorChange
350
3A
  3
Conceptual
350
34
  3
Dim
350
35
  3
Facepattern
350
39
  3
Flat
350
2B
  3
FlatWithEdges
350
2C
  3
Gouraud
350
2D
  3
GouraudWithEdges
350
2E
  3
Linepattern
350
38
  3
Realistic
350
33
  3
Thicken
350
37
  0
LAYOUT
  5
1E
102
{ACAD_REACTORS
330
1A
102
}
330
1A
100
AcDbPlotSettings
  1

  2
none_device
  4

  6

 40
0.0
 41
0.0
 42
0.0
 43
0.0
 44
0.0
 45
0.0
 46
0.0
 47
0.0
 48
0.0
 49
0.0
140
0.0
141
0.0
142
1.0
143
1.0
 70
   688
 72
     0
 73
     0
 74
     5
  7

 75
    16
 76
     0
 77
     2
 78
   300
147
1.0
148
0.0
149
0.0
100
AcDbLayout
  1
Layout1
 70
     1
 71
     1
 10
0.0
 20
0.0
 11
12.0
 21
9.0
 12
0.0
 22
0.0
 32
0.0
 14
1.000000000000000E+20
 24
1.000000000000000E+20
 34
1.000000000000000E+20
 15
-1.000000000000000E+20
 25
-1.000000000000000E+20
 35
-1.000000000000000E+20
146
0.0
 13
0.0
 23
0.0
 33
0.0
 16
1.0
 26
0.0
 36
0.0
 17
0.0
 27
1.0
 37
0.0
 76
     0
330
1B
  0
LAYOUT
  5
26
102
{ACAD_REACTORS
330
1A
102
}
330
1A
100
AcDbPlotSettings
  1

  2
none_device
  4

  6

 40
0.0
 41
0.0
 42
0.0
 43
0.0
 44
0.0
 45
0.0
 46
0.0
 47
0.0
 48
0.0
 49
0.0
140
0.0
141
0.0
142
1.0
143
1.0
 70
   688
 72
     0
 73
     0
 74
     5
  7

 75
    16
 76
     0
 77
     2
 78
   300
147
1.0
148
0.0
149
0.0
100
AcDbLayout
  1
Layout2
 70
     1
 71
     2
 10
0.0
 20
0.0
 11
0.0
 21
0.0
 12
0.0
 22
0.0
 32
0.0
 14
0.0
 24
0.0
 34
0.0
 15
0.0
 25
0.0
 35
0.0
146
0.0
 13
0.0
 23
0.0
 33
0.0
 16
1.0
 26
0.0
 36
0.0
 17
0.0
 27
1.0
 37
0.0
 76
     0
330
23
  0
LAYOUT
  5
22
102
{ACAD_REACTORS
330
1A
102
}
330
1A
100
AcDbPlotSettings
  1

  2
none_device
  4

  6

 40
0.0
 41
0.0
 42
0.0
 43
0.0
 44
0.0
 45
0.0
 46
0.0
 47
0.0
 48
0.0
 49
0.0
140
0.0
141
0.0
142
1.0
143
1.0
 70
  1712
 72
     0
 73
     0
 74
     0
  7

 75
     0
 76
     0
 77
     2
 78
   300
147
1.0
148
0.0
149
0.0
100
AcDbLayout
  1
Model
 70
     1
 71
     0
 10
0.0
 20
0.0
 11
12.0
 21
9.0
 12
0.0
 22
0.0
 32
0.0
 14
1.000000000000000E+20
 24
1.000000000000000E+20
 34
1.000000000000000E+20
 15
-1.000000000000000E+20
 25
-1.000000000000000E+20
 35
-1.000000000000000E+20
146
0.0
 13
0.0
 23
0.0
 33
0.0
 16
1.0
 26
0.0
 36
0.0
 17
0.0
 27
1.0
 37
0.0
 76
     0
330
1F
331
29
  0
MLINESTYLE
  5
18
102
{ACAD_REACTORS
330
17
102
}
330
17
100
AcDbMlineStyle
  2
Standard
 70
     0
  3

 62
   256
 51
90.0
 52
90.0
 71
     2
 49
0.5
 62
   256
  6
BYLAYER
 49
-0.5
 62
   256
  6
BYLAYER
  0
ACDBPLACEHOLDER
  5
F
102
{ACAD_REACTORS
330
E
102
}
330
E
  0
VISUALSTYLE
  5
2F
102
{ACAD_REACTORS
330
2A
102
}
330
2A
100
AcDbVisualStyle
  2
2dWireframe
 70
     4
 71
     0
 72
     2
 73
     0
 90
        0
 40
-0.6
 41
-30.0
 62
     5
 63
     7
421
 16777215
 74
     1
 91
        4
 64
     7
 65
   257
 75
     1
175
     1
 42
1.0
 92
        0
 66
   257
 43
1.0
 76
     1
 77
     6
 78
     2
 67
     7
 79
     5
170
     0
171
     0
290
     0
174
     0
 93
        1
 44
0.0
173
     0
291
     0
 45
0.0
1001
ACAD
1000
AcDbSavedByObjectVersion
1070
     0
  0
VISUALSTYLE
  5
31
102
{ACAD_REACTORS
330
2A
102
}
330
2A
100
AcDbVisualStyle
  2
3D Hidden
 70
     6
 71
     1
 72
     2
 73
     2
 90
        0
 40
-0.6
 41
-30.0
 62
     5
 63
     7
421
 16777215
 74
     2
 91
        2
 64
     7
 65
   257
 75
     2
175
     1
 42
40.0
 92
        0
 66
   257
 43
1.0
 76
     1
 77
     6
 78
     2
 67
     7
 79
     3
170
     0
171
     0
290
     0
174
     0
 93
        1
 44
0.0
173
     0
291
     0
 45
0.0
1001
ACAD
1000
AcDbSavedByObjectVersion
1070
     0
  0
VISUALSTYLE
  5
30
102
{ACAD_REACTORS
330
2A
102
}
330
2A
100
AcDbVisualStyle
  2
3dWireframe
 70
     5
 71
     0
 72
     2
 73
     0
 90
        0
 40
-0.6
 41
-30.0
 62
     5
 63
     7
421
 16777215
 74
     1
 91
        4
 64
     7
 65
   257
 75
     1
175
     1
 42
1.0
 92
        0
 66
   257
 43
1.0
 76
     1
 77
     6
 78
     2
 67
     7
 79
     5
170
     0
171
     0
290
     0
174
     0
 93
        1
 44
0.0
173
     0
291
     0
 45
0.0
1001
ACAD
1000
AcDbSavedByObjectVersion
1070
     0
  0
VISUALSTYLE
  5
32
102
{ACAD_REACTORS
330
2A
102
}
330
2A
100
AcDbVisualStyle
  2
Basic
 70
     7
 71
     1
 72
     0
 73
     1
 90
        0
 40
-0.6
 41
-30.0
 62
     5
 63
     7
421
 16777215
 74
     0
 91
        4
 64
     7
 65
   257
 75
     1
175
     1
 42
1.0
 92
        8
 66
     7
 43
1.0
 76
     1
 77
     6
 78
     2
 67
     7
 79
     5
170
     0
171
     0
290
     0
174
     0
 93
        1
 44
0.0
173
     0
291
     1
 45
0.0
1001
ACAD
1000
AcDbSavedByObjectVersion
1070
     0
  0
VISUALSTYLE
  5
36
102
{ACAD_REACTORS
330
2A
102
}
330
2A
100
AcDbVisualStyle
  2
Brighten
 70
    12
 71
     2
 72
     2
 73
     0
 90
        0
 40
-0.6
 41
-30.0
 62
     5
 63
     7
421
 16777215
 74
     1
 91
        4
 64
     7
 65
   257
 75
     1
175
     1
 42
1.0
 92
        8
 66
     7
 43
1.0
 76
     1
 77
     6
 78
     2
 67
     7
 79
     5
170
     0
171
     0
290
     0
174
     0
 93
        1
 44
50.0
173
     0
291
     1
 45
0.0
1001
ACAD
1000
AcDbSavedByObjectVersion
1070
     0
  0
VISUALSTYLE
  5
3A
102
{ACAD_REACTORS
330
2A
102
}
330
2A
100
AcDbVisualStyle
  2
ColorChange
 70
    16
 71
     2
 72
     2
 73
     3
 90
        0
 40
-0.6
 41
-30.0
 62
     5
 63
     8
421
  8421504
 74
     1
 91
        4
 64
     7
 65
   257
 75
     1
175
     1
 42
1.0
 92
        8
 66
     8
424
  8421504
 43
1.0
 76
     1
 77
     6
 78
     2
 67
     7
 79
     5
170
     0
171
     0
290
     0
174
     0
 93
        1
 44
0.0
173
     0
291
     1
 45
0.0
1001
ACAD
1000
AcDbSavedByObjectVersion
1070
     0
  0
VISUALSTYLE
  5
34
102
{ACAD_REACTORS
330
2A
102
}
330
2A
100
AcDbVisualStyle
  2
Conceptual
 70
     9
 71
     3
 72
     2
 73
     0
 90
        0
 40
-0.6
 41
-30.0
 62
     5
 63
     7
421
 16777215
 74
     2
 91
        2
 64
     7
 65
   257
 75
     1
175
     1
 42
40.0
 92
        8
 66
     7
 43
1.0
 76
     1
 77
     6
 78
     2
 67
     7
 79
     3
170
     0
171
     0
290
     0
174
     0
 93
        1
 44
0.0
173
     0
291
     0
 45
0.0
1001
ACAD
1000
AcDbSavedByObjectVersion
1070
     0
  0
VISUALSTYLE
  5
35
102
{ACAD_REACTORS
330
2A
102
}
330
2A
100
AcDbVisualStyle
  2
Dim
 70
    11
 71
     2
 72
     2
 73
     0
 90
        0
 40
-0.6
 41
-30.0
 62
     5
 63
     7
421
 16777215
 74
     1
 91
        4
 64
     7
 65
   257
 75
     1
175
     1
 42
1.0
 92
        8
 66
     7
 43
1.0
 76
     1
 77
     6
 78
     2
 67
     7
 79
     5
170
     0
171
     0
290
     0
174
     0
 93
        1
 44
-50.0
173
     0
291
     1
 45
0.0
1001
ACAD
1000
AcDbSavedByObjectVersion
1070
     0
  0
VISUALSTYLE
  5
39
102
{ACAD_REACTORS
330
2A
102
}
330
2A
100
AcDbVisualStyle
  2
Facepattern
 70
    15
 71
     2
 72
     2
 73
     0
 90
        0
 40
-0.6
 41
-30.0
 62
     5
 63
     7
421
 16777215
 74
     1
 91
        4
 64
     7
 65
   257
 75
     1
175
     1
 42
1.0
 92
        8
 66
     7
 43
1.0
 76
     1
 77
     6
 78
     2
 67
     7
 79
     5
170
     0
171
     0
290
     0
174
     0
 93
        1
 44
0.0
173
     0
291
     1
 45
0.0
1001
ACAD
1000
AcDbSavedByObjectVersion
1070
     0
  0
VISUALSTYLE
  5
2B
102
{ACAD_REACTORS
330
2A
102
}
330
2A
100
AcDbVisualStyle
  2
Flat
 70
     0
 71
     2
 72
     1
 73
     1
 90
        2
 40
-0.6
 41
30.0
 62
     5
 63
     7
421
 16777215
 74
     0
 91
        4
 64
     7
 65
   257
 75
     1
175
     1
 42
1.0
 92
        8
 66
     7
 43
1.0
 76
     1
 77
     6
 78
     2
 67
     7
 79
     5
170
     0
171
     0
290
     0
174
     0
 93
       13
 44
0.0
173
     0
291
     1
 45
0.0
1001
ACAD
1000
AcDbSavedByObjectVersion
1070
     0
  0
VISUALSTYLE
  5
2C
102
{ACAD_REACTORS
330
2A
102
}
330
2A
100
AcDbVisualStyle
  2
FlatWithEdges
 70
     1
 71
     2
 72
     1
 73
     1
 90
        2
 40
-0.6
 41
30.0
 62
     5
 63
     7
421
 16777215
 74
     1
 91
        4
 64
     7
 65
   257
 75
     1
175
     1
 42
1.0
 92
        0
 66
   257
 43
1.0
 76
     1
 77
     6
 78
     2
 67
     7
 79
     5
170
     0
171
     0
290
     0
174
     0
 93
       13
 44
0.0
173
     0
291
     1
 45
0.0
1001
ACAD
1000
AcDbSavedByObjectVersion
1070
     0
  0
VISUALSTYLE
  5
2D
102
{ACAD_REACTORS
330
2A
102
}
330
2A
100
AcDbVisualStyle
  2
Gouraud
 70
     2
 71
     2
 72
     2
 73
     1
 90
        2
 40
-0.6
 41
30.0
 62
     5
 63
     7
421
 16777215
 74
     0
 91
        4
 64
     7
 65
   257
 75
     1
175
     1
 42
1.0
 92
        0
 66
     7
 43
1.0
 76
     1
 77
     6
 78
     2
 67
     7
 79
     5
170
     0
171
     0
290
     0
174
     0
 93
       13
 44
0.0
173
     0
291
     1
 45
0.0
1001
ACAD
1000
AcDbSavedByObjectVersion
1070
     0
  0
VISUALSTYLE
  5
2E
102
{ACAD_REACTORS
330
2A
102
}
330
2A
100
AcDbVisualStyle
  2
GouraudWithEdges
 70
     3
 71
     2
 72
     2
 73
     1
 90
        2
 40
-0.6
 41
30.0
 62
     5
 63
     7
421
 16777215
 74
     1
 91
        4
 64
     7
 65
   257
 75
     1
175
     1
 42
1.0
 92
        0
 66
   257
 43
1.0
 76
     1
 77
     6
 78
     2
 67
     7
 79
     5
170
     0
171
     0
290
     0
174
     0
 93
       13
 44
0.0
173
     0
291
     1
 45
0.0
1001
ACAD
1000
AcDbSavedByObjectVersion
1070
     0
  0
VISUALSTYLE
  5
38
102
{ACAD_REACTORS
330
2A
102
}
330
2A
100
AcDbVisualStyle
  2
Linepattern
 70
    14
 71
     2
 72
     2
 73
     0
 90
        0
 40
-0.6
 41
-30.0
 62
     5
 63
     7
421
 16777215
 74
     1
 91
        4
 64
     7
 65
   257
 75
     7
175
     7
 42
1.0
 92
        8
 66
     7
 43
1.0
 76
     1
 77
     6
 78
     2
 67
     7
 79
     5
170
     0
171
     0
290
     0
174
     0
 93
        1
 44
0.0
173
     0
291
     1
 45
0.0
1001
ACAD
1000
AcDbSavedByObjectVersion
1070
     0
  0
VISUALSTYLE
  5
33
102
{ACAD_REACTORS
330
2A
102
}
330
2A
100
AcDbVisualStyle
  2
Realistic
 70
     8
 71
     2
 72
     2
 73
     0
 90
        0
 40
-0.6
 41
-30.0
 62
     5
 63
     7
421
 16777215
 74
     1
 91
        0
 64
     7
 65
   257
 75
     1
175
     1
 42
1.0
 92
        8
 66
     8
424
  7895160
 43
1.0
 76
     1
 77
     6
 78
     2
 67
     7
 79
     5
170
     0
171
     0
290
     0
174
     0
 93
       13
 44
0.0
173
     0
291
     0
 45
0.0
1001
ACAD
1000
AcDbSavedByObjectVersion
1070
     0
  0
VISUALSTYLE
  5
37
102
{ACAD_REACTORS
330
2A
102
}
330
2A
100
AcDbVisualStyle
  2
Thicken
 70
    13
 71
     2
 72
     2
 73
     0
 90
        0
 40
-0.6
 41
-30.0
 62
     5
 63
     7
421
 16777215
 74
     1
 91
        4
 64
     7
 65
   257
 75
     1
175
     1
 42
1.0
 92
       12
 66
     7
 43
1.0
 76
     1
 77
     6
 78
     2
 67
     7
 79
     5
170
     0
171
     0
290
     0
174
     0
 93
        1
 44
0.0
173
     0
291
     1
 45
0.0
1001
ACAD
1000
AcDbSavedByObjectVersion
1070
     0
  0
ENDSEC
  0
EOF
