0
SECTION
2
HEADER
9
$INSUNITS
70
4
9
$ACADVER
1
AC1014
9
$HANDSEED
5
FFFF
0
ENDSEC
0
SECTION
2
TABLES
0
TABLE
2
VPORT
5
8
100
AcDbSymbolTable
0
ENDTAB
0
TABLE
2
LTYPE
5
5
100
AcDbSymbolTable
0
LTYPE
5
14
100
AcDbSymbolTableRecord
100
AcDbLinetypeTableRecord
2
BYBLOCK
70
0
0
LTYPE
5
15
100
AcDbSymbolTableRecord
100
AcDbLinetypeTableRecord
2
BYLAYER
70
0
0
ENDTAB
0
TABLE
2
LAYER
5
2
100
AcDbSymbolTable
70
2
0
LAYER
5
50
100
AcDbSymbolTableRecord
100
AcDbLayerTableRecord
2
0
70
0
6
CONTINUOUS
0
ENDTAB
0
TABLE
2
STYLE
5
3
100
AcDbSymbolTable
70
1
0
STYLE
5
11
100
AcDbSymbolTableRecord
100
AcDbTextStyleTableRecord
2
STANDARD
70
0
0
ENDTAB
0
TABLE
2
VIEW
5
6
100
AcDbSymbolTable
70
0
0
ENDTAB
0
TABLE
2
UCS
5
7
100
AcDbSymbolTable
70
0
0
ENDTAB
0
TABLE
2
APPID
5
9
100
AcDbSymbolTable
70
2
0
APPID
5
12
100
AcDbSymbolTableRecord
100
AcDbRegAppTableRecord
2
ACAD
70
0
0
ENDTAB
0
TABLE
2
DIMSTYLE
5
A
100
AcDbSymbolTable
70
1
0
ENDTAB
0
TABLE
2
BLOCK_RECORD
5
1
100
AcDbSymbolTable
70
1
0
BLOCK_RECORD
5
1F
100
AcDbSymbolTableRecord
100
AcDbBlockTableRecord
2
*MODEL_SPACE
0
BLOCK_RECORD
5
1B
100
AcDbSymbolTableRecord
100
AcDbBlockTableRecord
2
*PAPER_SPACE
0
ENDTAB
0
ENDSEC
0
SECTION
2
BLOCKS
0
BLOCK
5
20
100
AcDbEntity
100
AcDbBlockBegin
2
*MODEL_SPACE
0
ENDBLK
5
21
100
AcDbEntity
100
AcDbBlockEnd
0
BLOCK
5
1C
100
AcDbEntity
100
AcDbBlockBegin
2
*PAPER_SPACE
0
ENDBLK
5
1D
100
AcDbEntity
100
AcDbBlockEnd
0
ENDSEC
0
SECTION
2
ENTITIES
0
LWPOLYLINE
5
100
100
AcDbEntity
8
0
100
AcDbPolyline
90
4
70
1
43
0.0
10
7.1856309686109139
20
5.7774855736930322
10
6.5856309686109142
20
5.7774855736930322
10
6.5856309686109142
20
5.1774855736930325
10
7.1856309686109139
20
5.1774855736930325
0
LWPOLYLINE
5
101
100
AcDbEntity
8
0
100
AcDbPolyline
90
4
70
1
43
0.0
10
22.785630968610917
20
5.1774855736930325
10
22.785630968610917
20
5.7774855736930322
10
22.185630968610916
20
5.7774855736930322
10
22.185630968610916
20
5.1774855736930325
0
LWPOLYLINE
5
102
100
AcDbEntity
8
0
100
AcDbPolyline
90
4
70
1
43
0.0
10
7.1856309686109139
20
7.7774855736930331
10
7.1856309686109139
20
8.3774855736930327
10
6.5856309686109142
20
8.3774855736930327
10
6.5856309686109142
20
7.7774855736930331
0
LWPOLYLINE
5
103
100
AcDbEntity
8
0
100
AcDbPolyline
90
4
70
1
43
0.0
10
22.785630968610917
20
7.7774855736930331
10
22.785630968610917
20
8.3774855736930327
10
22.185630968610916
20
8.3774855736930327
10
22.185630968610916
20
7.7774855736930331
0
LWPOLYLINE
5
104
100
AcDbEntity
8
0
100
AcDbPolyline
90
4
70
1
43
0.0
10
7.1856309686109139
20
10.377485573693033
10
7.1856309686109139
20
10.977485573693034
10
6.5856309686109142
20
10.977485573693034
10
6.5856309686109142
20
10.377485573693033
0
LWPOLYLINE
5
105
100
AcDbEntity
8
0
100
AcDbPolyline
90
4
70
1
43
0.0
10
22.785630968610917
20
10.377485573693033
10
22.785630968610917
20
10.977485573693034
10
22.185630968610916
20
10.977485573693034
10
22.185630968610916
20
10.377485573693033
0
LWPOLYLINE
5
106
100
AcDbEntity
8
0
100
AcDbPolyline
90
4
70
1
43
0.0
10
7.1856309686109139
20
12.977485573693032
10
7.1856309686109139
20
13.577485573693032
10
6.5856309686109142
20
13.577485573693032
10
6.5856309686109142
20
12.977485573693032
0
LWPOLYLINE
5
107
100
AcDbEntity
8
0
100
AcDbPolyline
90
4
70
1
43
0.0
10
22.785630968610917
20
12.977485573693032
10
22.785630968610917
20
13.577485573693032
10
22.185630968610916
20
13.577485573693032
10
22.185630968610916
20
12.977485573693032
0
LWPOLYLINE
5
108
100
AcDbEntity
8
0
100
AcDbPolyline
90
4
70
1
43
0.0
10
7.1856309686109139
20
15.577485573693032
10
7.1856309686109139
20
16.177485573693033
10
6.5856309686109142
20
16.177485573693033
10
6.5856309686109142
20
15.577485573693032
0
LWPOLYLINE
5
109
100
AcDbEntity
8
0
100
AcDbPolyline
90
4
70
1
43
0.0
10
22.785630968610917
20
15.577485573693032
10
22.785630968610917
20
16.177485573693033
10
22.185630968610916
20
16.177485573693033
10
22.185630968610916
20
15.577485573693032
0
LWPOLYLINE
5
110
100
AcDbEntity
8
0
100
AcDbPolyline
90
4
70
1
43
0.0
10
7.1856309686109139
20
18.177485573693033
10
7.1856309686109139
20
18.777485573693031
10
6.5856309686109142
20
18.777485573693031
10
6.5856309686109142
20
18.177485573693033
0
LWPOLYLINE
5
111
100
AcDbEntity
8
0
100
AcDbPolyline
90
4
70
1
43
0.0
10
22.785630968610917
20
18.177485573693033
10
22.785630968610917
20
18.777485573693031
10
22.185630968610916
20
18.777485573693031
10
22.185630968610916
20
18.177485573693033
0
LWPOLYLINE
5
112
100
AcDbEntity
8
0
100
AcDbPolyline
90
4
70
1
43
0.0
10
7.1856309686109139
20
20.777485573693035
10
7.1856309686109139
20
21.377485573693033
10
6.5856309686109142
20
21.377485573693033
10
6.5856309686109142
20
20.777485573693035
0
LWPOLYLINE
5
113
100
AcDbEntity
8
0
100
AcDbPolyline
90
4
70
1
43
0.0
10
22.785630968610917
20
20.777485573693035
10
22.785630968610917
20
21.377485573693033
10
22.185630968610916
20
21.377485573693033
10
22.185630968610916
20
20.777485573693035
0
LWPOLYLINE
5
114
100
AcDbEntity
8
0
100
AcDbPolyline
90
4
70
1
43
0.0
10
7.1856309686109139
20
23.377485573693029
10
7.1856309686109139
20
23.977485573693031
10
6.5856309686109142
20
23.977485573693031
10
6.5856309686109142
20
23.377485573693029
0
LWPOLYLINE
5
115
100
AcDbEntity
8
0
100
AcDbPolyline
90
4
70
1
43
0.0
10
22.785630968610917
20
23.377485573693029
10
22.785630968610917
20
23.977485573693031
10
22.185630968610916
20
23.977485573693031
10
22.185630968610916
20
23.377485573693029
0
LWPOLYLINE
5
116
100
AcDbEntity
8
0
100
AcDbPolyline
90
4
70
1
43
0.0
10
7.1856309686109139
20
25.977485573693034
10
7.1856309686109139
20
26.577485573693032
10
6.5856309686109142
20
26.577485573693032
10
6.5856309686109142
20
25.977485573693034
0
LWPOLYLINE
5
117
100
AcDbEntity
8
0
100
AcDbPolyline
90
4
70
1
43
0.0
10
22.785630968610917
20
25.977485573693034
10
22.785630968610917
20
26.577485573693032
10
22.185630968610916
20
26.577485573693032
10
22.185630968610916
20
25.977485573693034
0
LWPOLYLINE
5
118
100
AcDbEntity
8
0
100
AcDbPolyline
90
4
70
1
43
0.0
10
7.1856309686109139
20
28.577485573693032
10
7.1856309686109139
20
29.177485573693033
10
6.5856309686109142
20
29.177485573693033
10
6.5856309686109142
20
28.577485573693032
0
LWPOLYLINE
5
119
100
AcDbEntity
8
0
100
AcDbPolyline
90
4
70
1
43
0.0
10
22.785630968610917
20
28.577485573693032
10
22.785630968610917
20
29.177485573693033
10
22.185630968610916
20
29.177485573693033
10
22.185630968610916
20
28.577485573693032
0
LWPOLYLINE
5
120
100
AcDbEntity
8
0
100
AcDbPolyline
90
4
70
1
43
0.0
10
7.1856309686109139
20
31.177485573693033
10
7.1856309686109139
20
31.777485573693035
10
6.5856309686109142
20
31.777485573693035
10
6.5856309686109142
20
31.177485573693033
0
LWPOLYLINE
5
121
100
AcDbEntity
8
0
100
AcDbPolyline
90
4
70
1
43
0.0
10
22.785630968610917
20
31.177485573693033
10
22.785630968610917
20
31.777485573693035
10
22.185630968610916
20
31.777485573693035
10
22.185630968610916
20
31.177485573693033
0
LWPOLYLINE
5
122
100
AcDbEntity
8
0
100
AcDbPolyline
90
4
70
1
43
0.0
10
7.1856309686109139
20
33.777485573693035
10
7.1856309686109139
20
34.377485573693036
10
6.5856309686109142
20
34.377485573693036
10
6.5856309686109142
20
33.777485573693035
0
LWPOLYLINE
5
123
100
AcDbEntity
8
0
100
AcDbPolyline
90
4
70
1
43
0.0
10
22.785630968610917
20
33.777485573693035
10
22.785630968610917
20
34.377485573693036
10
22.185630968610916
20
34.377485573693036
10
22.185630968610916
20
33.777485573693035
0
LWPOLYLINE
5
124
100
AcDbEntity
8
0
100
AcDbPolyline
90
4
70
1
43
0.0
10
7.1856309686109139
20
36.377485573693036
10
7.1856309686109139
20
36.977485573693031
10
6.5856309686109142
20
36.977485573693031
10
6.5856309686109142
20
36.377485573693036
0
LWPOLYLINE
5
125
100
AcDbEntity
8
0
100
AcDbPolyline
90
4
70
1
43
0.0
10
22.785630968610917
20
36.377485573693036
10
22.785630968610917
20
36.977485573693031
10
22.185630968610916
20
36.977485573693031
10
22.185630968610916
20
36.377485573693036
0
LWPOLYLINE
5
126
100
AcDbEntity
8
0
100
AcDbPolyline
90
4
70
1
43
0.0
10
7.1856309686109139
20
38.977485573693031
10
7.1856309686109139
20
39.577485573693032
10
6.5856309686109142
20
39.577485573693032
10
6.5856309686109142
20
38.977485573693031
0
LWPOLYLINE
5
127
100
AcDbEntity
8
0
100
AcDbPolyline
90
4
70
1
43
0.0
10
22.785630968610917
20
38.977485573693031
10
22.785630968610917
20
39.577485573693032
10
22.185630968610916
20
39.577485573693032
10
22.185630968610916
20
38.977485573693031
0
LWPOLYLINE
5
128
100
AcDbEntity
8
0
100
AcDbPolyline
90
4
70
1
43
0.0
10
7.1856309686109139
20
41.577485573693032
10
7.1856309686109139
20
42.177485573693033
10
6.5856309686109142
20
42.177485573693033
10
6.5856309686109142
20
41.577485573693032
0
LWPOLYLINE
5
129
100
AcDbEntity
8
0
100
AcDbPolyline
90
4
70
1
43
0.0
10
22.785630968610917
20
41.577485573693032
10
22.785630968610917
20
42.177485573693033
10
22.185630968610916
20
42.177485573693033
10
22.185630968610916
20
41.577485573693032
0
LWPOLYLINE
5
130
100
AcDbEntity
8
0
100
AcDbPolyline
90
4
70
1
43
0.0
10
11.06145385655141
20
74.046036284300939
10
10.461453856551408
20
74.046036284300939
10
10.461453856551408
20
73.446036284300945
10
11.06145385655141
20
73.446036284300945
0
LWPOLYLINE
5
131
100
AcDbEntity
8
0
100
AcDbPolyline
90
4
70
1
43
0.0
10
13.061453856551408
20
73.446036284300945
10
13.661453856551409
20
73.446036284300945
10
13.661453856551409
20
74.046036284300939
10
13.061453856551408
20
74.046036284300939
0
LWPOLYLINE
5
132
100
AcDbEntity
8
0
100
AcDbPolyline
90
4
70
1
43
0.0
10
15.661453856551407
20
73.446036284300945
10
16.261453856551409
20
73.446036284300945
10
16.261453856551409
20
74.046036284300939
10
15.661453856551407
20
74.046036284300939
0
LWPOLYLINE
5
133
100
AcDbEntity
8
0
100
AcDbPolyline
90
4
70
1
43
0.0
10
18.261453856551409
20
73.446036284300945
10
18.86145385655141
20
73.446036284300945
10
18.86145385655141
20
74.046036284300939
10
18.261453856551409
20
74.046036284300939
0
LWPOLYLINE
5
134
100
AcDbEntity
8
0
100
AcDbPolyline
90
4
70
1
43
0.0
10
-21.399999508261679
20
41.000000610947609
10
-21.999999508261681
20
41.000000610947609
10
-21.999999508261681
20
40.400000610947615
10
-21.399999508261679
20
40.400000610947615
0
LWPOLYLINE
5
135
100
AcDbEntity
8
0
100
AcDbPolyline
90
4
70
1
43
0.0
10
-16.799999508261681
20
40.400000610947615
10
-16.799999508261681
20
41.000000610947609
10
-17.399999508261679
20
41.000000610947609
10
-17.399999508261679
20
40.400000610947615
0
LWPOLYLINE
5
136
100
AcDbEntity
8
0
100
AcDbPolyline
90
4
70
1
43
0.0
10
-21.399999508261679
20
47.000000610947616
10
-21.399999508261679
20
47.60000061094761
10
-21.999999508261681
20
47.60000061094761
10
-21.999999508261681
20
47.000000610947616
0
LWPOLYLINE
5
137
100
AcDbEntity
8
0
100
AcDbPolyline
90
4
70
1
43
0.0
10
-16.799999508261681
20
47.000000610947616
10
-16.799999508261681
20
47.60000061094761
10
-17.399999508261679
20
47.60000061094761
10
-17.399999508261679
20
47.000000610947616
0
LWPOLYLINE
5
138
100
AcDbEntity
8
0
100
AcDbPolyline
90
4
70
1
43
0.0
10
-11.052579433321164
20
31.354100541087803
10
-11.652579433321169
20
31.354100541087803
10
-11.652579433321169
20
30.754100541087809
10
-11.052579433321164
20
30.754100541087809
0
LWPOLYLINE
5
139
100
AcDbEntity
8
0
100
AcDbPolyline
90
4
70
1
43
0.0
10
-7.05257943332116
20
37.954100541087804
10
-7.05257943332116
20
37.35410054108781
10
-6.4525794333211639
20
37.35410054108781
10
-6.4525794333211639
20
37.954100541087804
0
LWPOLYLINE
5
140
100
AcDbEntity
8
0
100
AcDbPolyline
90
4
70
1
43
0.0
10
-11.052579433321164
20
37.954100541087804
10
-11.652579433321169
20
37.954100541087804
10
-11.652579433321169
20
37.35410054108781
10
-11.052579433321164
20
37.35410054108781
0
LWPOLYLINE
5
141
100
AcDbEntity
8
0
100
AcDbPolyline
90
4
70
1
43
0.0
10
-6.4525794333211639
20
31.354100541087803
10
-7.05257943332116
20
31.354100541087803
10
-7.05257943332116
20
30.754100541087809
10
-6.4525794333211639
20
30.754100541087809
0
LWPOLYLINE
5
142
100
AcDbEntity
8
0
100
AcDbPolyline
90
4
70
1
43
0.0
10
58.547420566678845
20
35.754100541087809
10
58.547420566678845
20
36.354100541087803
10
57.947420566678844
20
36.354100541087803
10
57.947420566678844
20
35.754100541087809
0
LWPOLYLINE
5
143
100
AcDbEntity
8
0
100
AcDbPolyline
90
4
70
1
43
0.0
10
47.600000491738321
20
46.000000610947609
10
47.600000491738321
20
45.400000610947615
10
48.200000491738315
20
45.400000610947615
10
48.200000491738315
20
46.000000610947609
0
LWPOLYLINE
5
144
100
AcDbEntity
8
0
100
AcDbPolyline
90
4
70
1
43
0.0
10
47.600000491738321
20
52.000000610947616
10
48.200000491738315
20
52.000000610947616
10
48.200000491738315
20
52.60000061094761
10
47.600000491738321
20
52.60000061094761
0
LWPOLYLINE
5
145
100
AcDbEntity
8
0
100
AcDbPolyline
90
4
70
1
43
0.0
10
43.600000491738328
20
52.60000061094761
10
43.000000491738319
20
52.60000061094761
10
43.000000491738319
20
52.000000610947616
10
43.600000491738328
20
52.000000610947616
0
LWPOLYLINE
5
146
100
AcDbEntity
8
0
100
AcDbPolyline
90
4
70
1
43
0.0
10
53.347420566678835
20
35.754100541087809
10
53.947420566678836
20
35.754100541087809
10
53.947420566678836
20
36.354100541087803
10
53.347420566678835
20
36.354100541087803
0
LWPOLYLINE
5
147
100
AcDbEntity
8
0
100
AcDbPolyline
90
4
70
1
43
0.0
10
57.947420566678844
20
42.354100541087817
10
58.547420566678845
20
42.354100541087817
10
58.547420566678845
20
42.954100541087797
10
57.947420566678844
20
42.954100541087797
0
LWPOLYLINE
5
148
100
AcDbEntity
8
0
100
AcDbPolyline
90
4
70
1
43
0.0
10
53.347420566678835
20
42.354100541087817
10
53.947420566678836
20
42.354100541087817
10
53.947420566678836
20
42.954100541087797
10
53.347420566678835
20
42.954100541087797
0
LWPOLYLINE
5
149
100
AcDbEntity
8
0
100
AcDbPolyline
90
4
70
1
43
0.0
10
43.000000491738319
20
45.400000610947615
10
43.600000491738328
20
45.400000610947615
10
43.600000491738328
20
46.000000610947609
10
43.000000491738319
20
46.000000610947609
0
LWPOLYLINE
5
150
100
AcDbEntity
8
0
100
AcDbPolyline
90
4
70
1
43
0.0
10
37.600000491738321
20
35.400000610947615
10
38.200000491738322
20
35.400000610947615
10
38.200000491738322
20
36.000000610947609
10
37.600000491738321
20
36.000000610947609
0
LWPOLYLINE
5
151
100
AcDbEntity
8
0
100
AcDbPolyline
90
4
70
1
43
0.0
10
47.947420566678844
20
32.354100541087817
10
48.547420566678838
20
32.354100541087817
10
48.547420566678838
20
32.954100541087797
10
47.947420566678844
20
32.954100541087797
0
LWPOLYLINE
5
152
100
AcDbEntity
8
0
100
AcDbPolyline
90
4
70
1
43
0.0
10
33.000000491738319
20
36.000000610947609
10
33.000000491738319
20
35.400000610947615
10
33.600000491738328
20
35.400000610947615
10
33.600000491738328
20
36.000000610947609
0
LWPOLYLINE
5
153
100
AcDbEntity
8
0
100
AcDbPolyline
90
4
70
1
43
0.0
10
43.347420566678835
20
25.754100541087809
10
43.947420566678836
20
25.754100541087809
10
43.947420566678836
20
26.354100541087803
10
43.347420566678835
20
26.354100541087803
0
LWPOLYLINE
5
154
100
AcDbEntity
8
0
100
AcDbPolyline
90
4
70
1
43
0.0
10
37.600000491738321
20
42.000000610947616
10
38.200000491738322
20
42.000000610947616
10
38.200000491738322
20
42.60000061094761
10
37.600000491738321
20
42.60000061094761
0
LWPOLYLINE
5
155
100
AcDbEntity
8
0
100
AcDbPolyline
90
4
70
1
43
0.0
10
43.947420566678836
20
32.954100541087797
10
43.347420566678835
20
32.954100541087797
10
43.347420566678835
20
32.354100541087817
10
43.947420566678836
20
32.354100541087817
0
LWPOLYLINE
5
156
100
AcDbEntity
8
0
100
AcDbPolyline
90
4
70
1
43
0.0
10
47.947420566678844
20
25.754100541087809
10
48.547420566678838
20
25.754100541087809
10
48.547420566678838
20
26.354100541087803
10
47.947420566678844
20
26.354100541087803
0
LWPOLYLINE
5
157
100
AcDbEntity
8
0
100
AcDbPolyline
90
4
70
1
43
0.0
10
33.600000491738328
20
42.60000061094761
10
33.000000491738319
20
42.60000061094761
10
33.000000491738319
20
42.000000610947616
10
33.600000491738328
20
42.000000610947616
0
CIRCLE
5
158
100
AcDbEntity
8
0
100
AcDbCircle
10
50
20
75
30
0
40
2.4999999999999996
0
CIRCLE
5
159
100
AcDbEntity
8
0
100
AcDbCircle
10
57.5
20
75
30
0
40
2.4999999999999996
0
CIRCLE
5
160
100
AcDbEntity
8
0
100
AcDbCircle
10
65
20
75
30
0
40
2.4999999999999996
0
ENDSEC
0
SECTION
2
OBJECTS
0
DICTIONARY
5
C
100
AcDbDictionary
3
ACAD_GROUP
350
D
3
ACAD_MLINESTYLE
350
17
0
DICTIONARY
5
D
100
AcDbDictionary
0
DICTIONARY
5
1A
330
C
100
AcDbDictionary
0
DICTIONARY
5
17
100
AcDbDictionary
0
ENDSEC
0
EOF
